Oops, an error
Loading. Please wait.

Together Well Ring In The New Year Tab

version 1
version 1

Whole song

Interactive

4,917 views 1 this week
2 commentsread comments
1 2 3 4 5
x 5
add to favorites
launch autoscroll
font size
0
reset
how to read this tab
guitar tuner
Autoscroll
slow
fast
+/-
esc
set tempo
stop
Help us to improve Ultimate-Guitar.com Take our survey!
×
Author
Difficulty
Motion City Soundtrack
Together We'll Ring In The New Year
Standard Tuning


Fig 1

e|----------------------------------------|
B|----------------------------------------|
G|-88888-8-------------55555-5------------|
D|-88888-8-66666-888---55555-5-66666-888--|
A|-66666-6-66666-888---33333-3-66666-888--|
E|---------44444-666-----------44444-666--|


Fig 2

e|-----------------|
B|-----------------|
G|-8---5-----------|
D|-8---5---3---6---|
A|-6---3---3---6---|
E|---------1---4---|

Fig 3

e|-------------------------|
B|-------------------------|
G|-8-----5-----------------|
D|-8-x16-5-x16-3-----6-----|
A|-6-----3-----3-x16-6-x16-|
E|-------------1-----4-----|
   .     .     .     .

Bridge

Guitar 1 
e|------------|
B|------------|
G|-7---5---4--|
D|-7---5---4--|
A|-5---3---6--|
E|------------|

Guitar 2
e|-------8-11--|
B|-9-11--------|
G|-------------|x3
D|-------------|
A|-------------|
E|-------------|

Fig 4

e|---------|
B|---------|
G|-5-------|
D|-5-3-6---|
A|-3-3-6---|
E|---1-4---|

Order

Fig 1
Fig 2
Fig 3
Fig 1
Fig 3
Fig 1
Bridge
Fig 4
Fig 3
Fig 1
Bridge
Suggest correction
comments
print report bad tab
2 comments total.
+1 reply
nfgrox312 155 Aug 11, 2006 10:31 AM

i think you labeled this the wrong song. if this is actually together we'll ring in the new year its just wrong. if its everything is alright its got edgy parts but its better.

0 reply
brian57 31 Jul 27, 2007 04:46 PM

i gave you 1 star because this isnt the right song.

guest
You may want to rate the tab now too:
select rating
Wanna post a correction for this tab? Suggest correction