Oops, an error
Loading. Please wait.

Together Well Ring In The New Year Tab

version 2
version 2

Whole song

Interactive

7,398 views 9 this week
1 commentread comment
1 2 3 4 5
excellent!
x 3
add to favorites
launch autoscroll
font size
0
reset
how to read this tab
guitar tuner
Autoscroll
slow
fast
+/-
esc
set tempo
stop
Help us to improve Ultimate-Guitar.com Take our survey!
×
Author
Artist: Motion City Soundtrack
Song: Together We'll Ring In The New Year
Album: Commit This To Memory
Tunning: Half-Step Down
Tabbed By:>>Max<<
-----------------
This was a tricky song to tab because there is one guitar playing on the left channel,
another playing something different on the right. So, I cut out the vocals, and listened
each channel separately and this is what I got. The left channel might be wrong, but 
what it sounds like to me.
The right is definitely correct. And I didn't bother getting too technical with the
patterns. Enjoy.

LEFT CHANNEL GUITAR

Eb|--------------------------------------------------------------------------------------|
Bb|---------10---10-10-10---10---10--10---10--10--10-------------------------------------|
Gb|---------9----9--9--9----9----9---9----9---9---9--------------------------------------|
Db|---------7----7--7--7----6----6---7----7---7---7----11---11--7---7--7---11--7---6--7--|x2
Ab|--7---7--7----7--7--7-------------7----7---7---7----11---11--7---7--7---11--7---6--7--|
Eb|--0---0--0----0--0--0----0----0---0----0---0---0----9----9---5---5--5---9---5---4--5--|


Eb|-----------------------------|
Bb|-----------------------------|
Gb|-----------------------------|
Db|--4--4--4--4--4--4--4--4--5--|
Ab|--4--4--4--4--4--4--4--4--5--|
Eb|--2--2--2--2--2--2--2--2--3--|


Eb|--------------------------------------------------------------------|
Bb|--------------------------------------------------------------------|
Gb|------7--7---9--9---7--7--7--7-------7--7---------------------------|
Db|--7---7--7---9--9---7--7--7--7---7---7--7---5--5--5--5--5--5--2--2--| x2
Ab|--7---5--5---7--7---5--5--5--5---7---5--5---5--5--5--5--5--5--2--2--|
Eb|--5------------------------------5----------3--3--3--3--3--3--0--0--|


Eb|--------------------------------------------------|
Bb|--------------------------------------------------|
Gb|--------------------------7--7--7--7--7--7--7--7--|
Db|--4--4--4--4--4--4--4--4--7--7--7--7--7--7--7--7--|
Ab|--4--4--4--4--4--4--4--4--5--5--5--5--5--5--5--5--|
Eb|--2--2--2--2--2--2--2--2--------------------------|

Eb|--------------------------------------------------------------------------------------|
Bb|---------10---10-10-10---10---10--10---10--10--10-------------------------------------|
Gb|---------9----9--9--9----9----9---9----9---9---9--------------------------------------|
Db|---------7----7--7--7----6----6---7----7---7---7----11---11--7---7--7---11--7---6--7--|x2
Ab|--7---7--7----7--7--7-------------7----7---7---7----11---11--7---7--7---11--7---6--7--|
Eb|--0---0--0----0--0--0----0----0---0----0---0---0----9----9---5---5--5---9---5---4--5--|


Eb|-----------------------------|
Bb|-----------------------------|
Gb|-----------------------------|
Db|--4--4--4--4--4--4--4--4--5--|
Ab|--4--4--4--4--4--4--4--4--5--|
Eb|--2--2--2--2--2--2--2--2--3--|


Eb|--------------------------------------------------------------------|
Bb|--------------------------------------------------------------------|
Gb|------7--7---9--9---7--7--7--7-------7--7---------------------------|
Db|--7---7--7---9--9---7--7--7--7---7---7--7---5--5--5--5--5--5--2--2--| x4
Ab|--7---5--5---7--7---5--5--5--5---7---5--5---5--5--5--5--5--5--2--2--|
Eb|--5------------------------------5----------3--3--3--3--3--3--0--0--|


Eb|--------------------------------------------------|
Bb|--------------------------------------------------|
Gb|--6--6--6--6--6--6--6--6--7--7--7--7--7--7--7--7--|
Db|--6--6--6--6--6--6--6--6--7--7--7--7--7--7--7--7--|
Ab|--4--4--4--4--4--4--4--4--5--5--5--5--5--5--5--5--|
Eb|--------------------------------------------------|


Eb|----------------------------------------------------------------|
Bb|---------10---10-10-10---10---10--10---10--10--10---------------|
Gb|---------9----9--9--9----9----9---9----9---9---9----------------|
Db|---------7----7--7--7----6----6---7----7---7---7----11---11--7--|
Ab|--7---7--7----7--7--7-------------7----7---7---7----11---11--7--|
Eb|--0---0--0----0--0--0----0----0---0----0---0---0----9----9---5--|

RIGHT CHANNEL GUITAR


Eb|------------------------------------------------------------------------------------------------|
Bb|------------------------------------------------------------------------------------------------|
Gb|--9--9--9--9--9--9--9--9--6--6--6--6--6--6--6--6--7--6--7--6--7--6--7--6--7--6--7--6--7--9---9--|
Db|--7--7--7--7--7--7--7--7--7--7--7--7--7--7--7--7--7--7--7--7--7--7--7--7--7--7--7--7--7--9---7--|x4
Ab|--0--0--0--0--0--0--0--0--0--0--0--0--0--0--0--0--5--5--5--5--5--5--5--5--5--5--5--5--5--7---0--|
Eb|------------------------------------------------------------------------------------------------|


Eb|-----------------------------|
Bb|-----------------------------|
Gb|-----------------------------|
Db|--4--4--4--4--4--4--4--4--5--|
Ab|--4--4--4--4--4--4--4--4--5--|
Eb|--2--2--2--2--2--2--2--2--3--|


Eb|--------------------------------------------------------------------|
Bb|--------------------------------------------------------------------|
Gb|------7--7---9--9---7--7--7--7-------7--7---------------------------|
Db|--7---7--7---9--9---7--7--7--7---7---7--7---5--5--5--5--5--5--2--2--| x2
Ab|--7---5--5---7--7---5--5--5--5---7---5--5---5--5--5--5--5--5--2--2--|
Eb|--5------------------------------5----------3--3--3--3--3--3--0--0--|


Eb|--------------------------------------------------|
Bb|--------------------------------------------------|
Gb|--------------------------7--7--7--7--7--7--7--7--|
Db|--4--4--4--4--4--4--4--4--7--7--7--7--7--7--7--7--|
Ab|--4--4--4--4--4--4--4--4--5--5--5--5--5--5--5--5--|
Eb|--2--2--2--2--2--2--2--2--------------------------|


E|------------------------------------------------------------------------------------------------|
B|------------------------------------------------------------------------------------------------|
G|--9--9--9--9--9--9--9--9--6--6--6--6--6--6--6--6--7--6--7--6--7--6--7--6--7--6--7--6--7--9---9--|
D|--7--7--7--7--7--7--7--7--7--7--7--7--7--7--7--7--7--7--7--7--7--7--7--7--7--7--7--7--7--9---7--|x4
A|--0--0--0--0--0--0--0--0--0--0--0--0--0--0--0--0--5--5--5--5--5--5--5--5--5--5--5--5--5--7---0--|
E|------------------------------------------------------------------------------------------------|


Eb|-----------------------------|
Bb|-----------------------------|
Gb|-----------------------------|
Db|--4--4--4--4--4--4--4--4--5--|
Ab|--4--4--4--4--4--4--4--4--5--|
Eb|--2--2--2--2--2--2--2--2--3--|


Eb|--------------------------------------------------------------------|
Bb|--------------------------------------------------------------------|
Gb|------7--7---9--9---7--7--7--7-------7--7---------------------------|
Db|--7---7--7---9--9---7--7--7--7---7---7--7---5--5--5--5--5--5--2--2--| x4
Ab|--7---5--5---7--7---5--5--5--5---7---5--5---5--5--5--5--5--5--2--2--|
Eb|--5------------------------------5----------3--3--3--3--3--3--0--0--|


Eb|--------------------------------------------------|
Bb|--------------------------------------------------|
Gb|--6--6--6--6--6--6--6--6--7--7--7--7--7--7--7--7--|
Db|--6--6--6--6--6--6--6--6--7--7--7--7--7--7--7--7--|
Ab|--4--4--4--4--4--4--4--4--5--5--5--5--5--5--5--5--|
Eb|--------------------------------------------------|


Eb|--------9-----9-----9-------5-----7-----5-----------------------|
Bb|----------------------------------------------------------------|
Gb|-----9-----9-----9-----9\6-----6-----6---------6/7-----7-----6--|
Db|----------------------------------------------------0-----------|
Ab|--0-------------------------------------------------------------|
Eb|----------------------------------------------------------------|
Suggest correction
Give kudos to tab author, rate the tab!
1 2 3 4 5
comments
print report bad tab
1 comment total.
0 reply
zebrocks 52 wrote on November 20 2009, 04:28 pm

great stuff. and if youre as lazy as me you can just play around with some powerchords and throw the low Eb to a high e flat and you dont even gotta tune it down.

guest
You may want to rate the tab now too:
select rating
Please do not post tabs as comments. Select "correction" instead!