Oops, an error
Loading. Please wait.

When Youre Around Tab

version 4
version 4

Whole song

Interactive

21,285 views 9 this week
3 commentsread comments
1 2 3 4 5
excellent!
x 7
add to favorites
launch autoscroll
font size
0
reset
how to read this tab
guitar tuner
Tab Pro tools
  • play this tab
  • loop segment
  • change instrument
  • show fretboard
  • metronome
Autoscroll
slow
fast
+/-
esc
set tempo
stop
Contributor
Difficulty
novice
When "You're" Around
Motion City Soundtrack
Commit This to Memory
Tabbed by:Brendan Walles (basspunk1823)
Notes:I also tabbed out the moog part in the chorus but i'm not sure about it yet. All 
will be put in "comments."

Intro (GUITAR 1)- 0:00-0:12
e---------------------------------------------|
b---------------------------------------------|
G---------------------------------------------|
D-6-6-6-7-7--9-9-91111--6-6-6-7-7--9-9-9-7-9--| x3
A-6-6-6-7-7--9-9-91111--6-6-6-7-7--9-9-9-7-9--|
E-4-4-4-5-5--7-7-7-9-9--4-4-4-5-5--7-7-7-5-7--|

Intro Cont. (GUITAR 2)- 0:03-0:12
e--------------------------|
b----9-9999-----9-99-------|
G-4/9-9----11--9-9--11-11--|
D--------------------------| x2
A--------------------------|
E--------------------------|

Verse (GUITARS 1&2)- 0:13-0:28
e----------------------|---------------------|
b----------------------|---------------------|
G----------------------|---------------------|
D-6-6-6-7-7--9-9-91111-|-6-6-6-7-7--9-9-9----| x4
A-6-6-6-7-7--9-9-91111-|-6-6-6-7-7--x-x-x-7--|
E-4-4-4-5-5--7-7-7-9-9-|-4-4-4-5-5--7-7-7-0--|
PM. . . . .  . . . . .   . . . . .
Note: On 4th time of the first verse, they don't play the second part of the verse, they play this:

Pre-Chorus (GUITAR 1)- 0:28-0:30-|
e--------------------------------|
b--------------------------------|
G--------------------------------|
D-6-6-6-7-7--(REST)--------------|
A-6-6-6-7-7----------------------|
E-4-4-4-5-5----------------------|

Pre-Chorus Cont. (GUITAR 2)- 0:28-0:30-|
e--------------------------------------|
b--------------------------------------|
G--------------------------------------|
D-(REST)--9-9-91111--------------------|
A---------9-9-91111--------------------|
E---------7-7-7-9-9--------------------|

Chorus (GUITARS 1&2)- 0:31-0:54
e---------------|------------------|---------------|------------------|
b---------------|------------------|---------------|------------------|
G-6-------------|-6-----------4----|-6-------------|-6-------7---4----|
D-6---7---2-----|-6---7---2---4----|-6---7---2-----|-6---7---7---4----|
A-4x8-7---2-----|-4x8-7---2---2x8--|-4x8-7---2-----|-4x8-7---5x8-2x8--|
E-----5x8-0x16--|-----5x8-0x8------|-----5x8-0x16--|-----5x8----------|
Note: If you want, you can have the second guitar play the moog part.

Moog Chorus
e-2h4p2-----4p2----------2h4p2-----4p2-----------------|
b------5-------5---(REST)-----5-------5-----------5----|
G-------4*------4*-------------4*------4*-4-6-4-6---6--|
D------------------------------------------------------|
A------------------------------------------------------|
E------------------------------------------------------|

e-2h4p2-----4p2----------2h4p2-----4p2----4*-----------|
b------5-------5---(REST)-----5-------5-------7*-------|
G-------4*------4*-------------4*------4*--------------|
D------------------------------------------------------|
A------------------------------------------------------|
E------------------------------------------------------|

Pre-Verse (GUITAR 1)- 0:54-1:03------------------|
e------------------------------------------------|
b------------------------------------------------|
G------------------------------------------------|
D-6-6-6-7-7--9-9-91111--6-6-6-7-7--9-9-9-7-9-----| x2
A-6-6-6-7-7--9-9-91111--6-6-6-7-7--9-9-9-7-9-----|
E-4-4-4-5-5--7-7-7-9-9--4-4-4-5-5--7-7-7-5-7-----|

Pre-Verse Cont. (GUITAR 2)- 0:54-1:03-|
e-------------------------------------|
b----9-9999-----9-99------------------|
G-4/9-9----11--9-9--11-11-------------|
D-------------------------------------| x2
A-------------------------------------|
E-------------------------------------|

Verse (GUITARS 1&2)- 1:03-1:20
e----------------------|---------------------|
b----------------------|---------------------|
G----------------------|---------------------|
D-6-6-6-7-7--9-9-91111-|-6-6-6-7-7--9-9-9----| x4
A-6-6-6-7-7--9-9-91111-|-6-6-6-7-7--x-x-x-7--|
E-4-4-4-5-5--7-7-7-9-9-|-4-4-4-5-5--7-7-7-0--|
PM. . . . .  . . . . .   . . . . .

Chorus (GUITARS 1&2)- 1:21-1:44
e---------------|------------------|---------------|------------------|
b---------------|------------------|---------------|------------------|
G-6-------------|-6-----------4----|-6-------------|-6-------7---4----|
D-6---7---2-----|-6---7---2---4----|-6---7---2-----|-6---7---7---4----|
A-4x8-7---2-----|-4x8-7---2---2x8--|-4x8-7---2-----|-4x8-7---5x8-2x8--|
E-----5x8-0x16--|-----5x8-0x8------|-----5x8-0x16--|-----5x8----------|
Note: If you want, you can have the second guitar play the moog part.

Moog Chorus
e-2h4p2-----4p2----------2h4p2-----4p2-----------------|
b------5-------5---(REST)-----5-------5-----------5----|
G-------4*------4*-------------4*------4*-4-6-4-6---6--|
D------------------------------------------------------|
A------------------------------------------------------|
E------------------------------------------------------|

e-2h4p2-----4p2----------2h4p2-----4p2-----4*-------------|
b------5-------5---(REST)-----5-------5----------7*-------|
G-------4*------4*-------------4*------4*-----------------|
D---------------------------------------------------------|
A---------------------------------------------------------|
E---------------------------------------------------------|

Post Chorus (GUITAR 2)- 1:45
e---------|
b--9-9----|
G-9-9-9\--|
D---------|
A---------|
E---------|

Bridge (GUITAR 1)- 1:46-1:54
e---------------------------------------------|
b---------------------------------------------|
G---------------------------------------------|
D-6-6-6-7-7--9-9-91111--6-6-6-7-7--9-9-9-7-9--| x2
A-6-6-6-7-7--9-9-91111--6-6-6-7-7--9-9-9-7-9--|
E-4-4-4-5-5--7-7-7-9-9--4-4-4-5-5--7-7-7-5-7--|

Bridge Cont. (GUITAR 2)- 1:46-1:54
e--------------------------|
b----9-9999-----9-99-------|
G-4/9-9----11--9-9--11-11--|
D--------------------------| x2
A--------------------------|
E--------------------------|

Chorus (GUITARS 1&2)- 1:55-2:18
e---------------|------------------|---------------|-----------------------------|
b---------------|------------------|---------------|-----------------------------|
G-6-------------|-6-----------4----|-6-------------|-6-------77777777--44444444--|
D-6---7---2-----|-6---7---2---4----|-6---7---2-----|-6---7---77777777--44444444--|
A-4x8-7---2-----|-4x8-7---2---2x8--|-4x8-7---2-----|-4x8-7---55555555--22222222--|
E-----5x8-0x16--|-----5x8-0x8------|-----5x8-0x16--|-----5x8---------------------|
PM                                                           ........
   Note: If you want, you can have the second guitar play the moog part.

Moog Chorus
e-2h4p2-----4p2----------2h4p2-----4p2-----------------|
b------5-------5---(REST)-----5-------5-----------5----|
G-------4*------4*-------------4*------4*-4-6-4-6---6--|
D------------------------------------------------------|
A------------------------------------------------------|
E------------------------------------------------------|

e-2h4p2-----4p2----------2h4p2-----4p2-----4*-------------|
b------5-------5---(REST)-----5-------5----------7*-------|
G-------4*------4*-------------4*------4*-----------------|
D---------------------------------------------------------|
A---------------------------------------------------------|
E---------------------------------------------------------|

Last Chorus (GUITARS 1&2)- 2:18-2:29
e------------------|
b------------------|
G---------7---4----|
D-2---7---7---4----| x2
A-2---7---5x8-2x8--|
E-0x8-5x8----------|

Outro (GUITAR 1)- 2:30-2:51
e---------------------------------------------|----------------------------------------------|
b---------------------------------------------|----------------------------------------------|
G---------------------------------------------|----------------------------------------------|
D-6-6-6-7-7--9-9-91111--6-6-6-7-7--9-9-9-7-9--|-6-6-6-7-7--9-9-91111--6-6-6-7-7--9-9-9-7-2*--|
A-6-6-6-7-7--9-9-91111--6-6-6-7-7--9-9-9-7-9--|-6-6-6-7-7--9-9-91111--6-6-6-7-7--9-9-9-7-2*--|
E-4-4-4-5-5--7-7-7-9-9--4-4-4-5-5--7-7-7-5-7--|-4-4-4-5-5--7-7-7-9-9--4-4-4-5-5--7-7-7-5-0*--|

Outro (GUITAR 2)- 2:30-2:51
e--------------------------|-----------------------------|
b----9-9999-----9-99-------|----9-9999-----9-99----------|
G-4/9-9----11--9-9--11-11--|-4/9-9----11--9-9--11-11-9*--|
D--------------------------|-----------------------------|
A--------------------------|-----------------------------|
E--------------------------|-----------------------------|

Symbols: *=Let ring
         /=Slide Up
         \=Slide Down

Please comment and rate. THX!
comments
print report bad tab
3 comments total.
-1 reply
Perfect_Teeth wrote on December 16 2006, 08:15 pm

someone finally got the intro right. nice tab

+1 reply
IZZYs88 wrote on September 1 2008, 02:35 pm

NICE TAB

0 reply
Stevebanjo wrote on September 3 2010, 07:03 pm

This tab is very close. I have a slight revision. Here are the technicalities in the intro. I'm sure you can figure out the proper strumming patterns.

e---------------------------------------------|
b---------------------------------------------|
G---------------------------------------------|
D-7-7-7-7-7--9-9-91111--7-7-7-7-7--9-9-9-2-2--|
A-7-7-7-7-7--7-7-7-9-9--7-7-7-7-7--7-7-7-2-2--|
E-4-4-4-5-5--7-7-7-9-9--4-4-4-5-5--7-7-7-0-0--|

I want to post or [tab]
guest
You may want to rate the tab now too:
select rating
Please do not post tabs as comments. Select "correction" instead!