Oops, an error
Loading. Please wait.

Worker Bee Bass Tab

1,589 views 3 this week
no commentswrite comment
1 2 3 4 5
excellent!
x 2
add to favorites
launch autoscroll
font size
0
reset
guitar tuner
Tab Pro tools
  • play this tab
  • loop segment
  • change instrument
  • show fretboard
  • metronome
Autoscroll
slow
fast
+/-
esc
set tempo
stop
Contributor
Difficulty
novice
Worker Bee
Motion City Soundtrack
Bass Tab

G|-----------------------------------------------|
D|-----------------------------------------------|
A|---------------------66666666-22222222-44444444|
E|------------22222222---------------------------|

G|-------------------------------------|
D|-------------------------------------|
A|----------66666666-22222222-44444444-|
E|-22222222----------------------------|

G|-------------------------------------|
D|-------------------------------------|
A|----------66666666-22222222-44444444-|
E|-22222222----------------------------|

G|-------------------------------------|
D|-------------------------------------|
A|----------66666666-22222222-44444444-|
E|-22222222----------------------------|

G|----------------------------------------------|
D|----------------------------------------------|
A|-6-6-6-6---------2-2-2-22---22222222-44444444-|
E|---------2-2-2-2----------4-------------------|

G|-------------------------------------|
D|-------------------------------------|
A|----------66666666-22222222-44444444-|
E|-22222222----------------------------|

G|-------------------------------------|
D|-------------------------------------|
A|----------66666666-22222222-44444444-|
E|-22222222----------------------------|

G|----------------------------------------------|
D|----------------------------------------------|
A|-6-6-6-6---------2-2-2-22---22222222-44444444-|
E|---------2-2-2-2----------4-------------------|

G|---------------------------------------|
D|---------------------------------------|
A|-(66666666)----------22222222-44444444-|
E|------------22222222-------------------|
Note: The E flat is actually the octave down, but for the sake of keeping this tab in 
tuning, I left it this way.
G|---------------------------------------|
D|---------------------------------------|
A|-(66666666)----------22222222-44444444-|
E|------------22222222-------------------|

G|-----------------------------------|
D|-----------------------------------|
A|------------------2222222222222222-|
E|-4444444444444444------------------|

G|-------------------------------------|
D|-------------------------------------|
A|----------66666666-22222222-44444444-|
E|-22222222----------------------------|

G|-------------------------------------|
D|-------------------------------------|
A|----------66666666-22222222-44444444-|
E|-22222222----------------------------|

G|------------------------------------------------------------------|
D|------------------------------------------------------------------|
A|-6-6-6-6---------2-2-2-2---------6-6-6-6---------2-2-2-2----------|
E|---------2-2-2-2---------4-4-4-4---------2-2-2-2---------44444444-|

G|----------------------------------|
D|----------------------------------|
A|-66666666----------222222-2-22----|
E|----------22222222-------------4~-|

G|----------------------------------------------------------|
D|----------------------------------------------------------|
A|-22222222-44444444-22222222-44444444-22222222-44444444----|
E|-------------------------------------------------------2~-|

End.
comments
We did not receive enough feedback on this tab! Please rate:
print report bad tab
1 2 3 4 5
I want to post or [tab]
guest
You may want to rate the tab now too:
select rating
Please do not post tabs as comments. Select "correction" instead!