Oops, an error
Loading. Please wait.

A-M-E-R-I-C-A Tab

version 1
version 1

Whole song

Interactive

32,064 views 159 this week
7 commentsread comments
1 2 3 4 5
accurate
x 11
add to favorites
launch autoscroll
font size
0
reset
how to read this tab
guitar tuner
Tab Pro tools
  • play this tab
  • loop segment
  • change instrument
  • show fretboard
  • metronome
Autoscroll
slow
fast
+/-
esc
set tempo
stop
Contributor
Difficulty
Tuning
novice
C# G# C# F# A# D#
Song: America
Band: Motionless In White
Album: Infamous(2012)         *****RATE-PLEASE*****
Tuning: Drop C#

I Didn't write how many times to play just figure it out.

{KEY}
/- Slide Down
\-Slide Up
*- Pinch Harmonic(Squeal)
h- Hammer On
b- Bend

Intro(Keys):
e|--------------------------------------------------------------------------|
B|--------------------------------------------------------------------------|
G|--------------------------------------------------------------------------|
D|-----7676--7676--12/-------7676---7676---12\14----------------------------|
A|--------------------------------------------------------------------------|
E|--0--------------------0--------------------------------------------------|

Chorus: (Guitar)
e|--------------------------------------------------------------------------|
B|--------------------------------------------------------------------------|
G|----------3-------3-----3---3\5------3-----3----3----33-22----------------|
D|-----00---3---0---3--0--3-0-3\5--00--3--0--3-0--3-0--33-22----------------|
A|-----00---1---0---1--0--1-0-1\3--00--1--0--1-0--1-0--11-00----------------|
E|-----00-------0------0----0------00-----0----0----0-----------------------|

Verse: (Guitar)
e|--------------------------------------------------------------------------|
B|--------------------------------------------------------------------------|
G|--------------------------------------------------------------------------|
D|-----------------------3-5---------------------------3-2------------------|
A|-00---0---0----0--0----1-3---00----0---0----0--0-----1-0------------------|
E|-00---0---0----0--0-3-5------00----0---0----0--0-3-5----------------------|

Pre-Chorus: (GUITAR)
e|--------------------------------------------------------------------------|
B|----------------------------------------------9*--------------------------|
G|--------------------------------------------------------------------------|
D|-----------------77-6-------------------77-6------------------------------|
A|--------------------------------------------------------------------------|
E|----0000---0000----------0000---0000--------------------------------------|

Chorus
Intro(Keys)
Verse
Pre-Chorus
Chorus
Chorus

Solo: (Guitar)
e|---------15b--15--13--12-12h13-12----------15b--15--13-12-12h13-12--18b---|
B|-----15---------------------------14/13--15-------------------------------|
G|--------------------------------------------------------------------------|
D|--------------------------------------------------------------------------|
A|-------------------------After-Awhile-A-Harmony-Comes-In------------------|
E|--------------------------------------------------------------------------|
**{To make it sound like a harmony you could turn on a wah pedal and have it all 
the way forward}**

Chorus w/ Intro(Keys) Behind It
Intro

That's The End. If Anything is wrong comment it.
                           ****MIW****

comments
print report bad tab
7 comments total. Showing first comments.
+1 reply
MrBeale wrote on March 21 2013, 06:01 pm

Somebody should do this in Guitar Pro

0 reply
Zoozx80 wrote on May 25 2013, 06:47 pm

e|-----------------------------------------------------------------------
B|-----------------------------------------------------------------------
G|----------3-------3-----3---3\5------3-----3----3----33-22-------------
D|-----00---3---0---3--0--3-0-3\5--00--3--0--3-0--3-0--33-22-------------
A|-----00---1---0---1--0--1-0-1\3--00--1--0--1-0--1-0--11-00-------------
E|-----00-------0------0----0------00-----0----0----0--------------------

should be

e|-----------------------------------------------------------------------
B|-----------------------------------------------------------------------
G|----------3-------3-----3----2-2-5------3-----3----3----33-22----------
D|-----00---3---0---3--0--3-0--2-2-5--00--3--0--3-0--3-0--33-22----------
A|-----00---1---0---1--0--1-0--0-0-3--00--1--0--1-0--1-0--11-00----------
E|-----00-------0------0----0---------00-----0----0----0-----------------

0 reply
hecdav wrote on June 8 2013, 10:25 pm

the pre-chorus is wrong, can somebody fix it?

I want to post or [tab]
guest
You may want to rate the tab now too:
select rating
Please do not post tabs as comments. Select "correction" instead!