Oops, an error
Loading. Please wait.

Black Damask The Fog Bass Tab

version 1
version 1

Whole song

Interactive

2,457 views 36 this week
1 commentread comment
1 2 3 4 5
worth learning
x 1
add to favorites
launch autoscroll
font size
0
reset
guitar tuner
Tab Pro tools
  • play this tab
  • loop segment
  • change instrument
  • show fretboard
  • metronome
Autoscroll
slow
fast
+/-
esc
set tempo
stop
Contributor
Difficulty
Tuning
intermediate
A E A D F# B
                      ******MikeSb7's tab*******


Since there isnt any bass tabs for black damask (The Fog)i decided to make one.


Did this by ear, sounds 100% correct 


Timing shouldnt be a problem while playing the notes from the tab 


Please Rate and comment tab thank you (:


I have no rights to this song, all rights go to Motionless In White!!!!
 

Motionless In White - Black Damask (The Fog)

Album: Infamous


Enjoy!!!!!


=============================================================================
=============================================================================



Piano Intro [0:00-0:18}



Verse [0:19-0:38]

D|----------------------------------------|
A|----------------------------------------|(x4)
E|----------------------------------------|
A|-0000000000000000-7777-3333-6666-2222---|



Pre-Chrous [0:39-0:47]

D|-----------------------------------------------------------------|
A|-----------------------------------------------------------------|
E|------------------4444444444444444-------------------------------|
A|-0000000000000000------------------88888888888888888-77777777--7-|



Chorus [0:48-1:09]

D|------------------------------------------------------------|
A|------------------------------------------------------------|
E|------------------------------------------------------------|
A|-0-0---0--0----0-0---0--0--0-----0--0--0---0-0-0-0-0-0-0-0--|



D|---------------------------------------------------------------------|
A|---------------------------------------------------------------------|
E|---------------------------------------------------------------------|
A|-0-0---0--0----0-0---0--0--0-----0--0--0---000000000000000000000000--|



D|-------------------------------------------------------------|
A|-------------------------------------------------------------|
E|-------------------------------------------------------------|
A|-8888888888888888---0-0---0--0----0-0---0--0--0-----0--0--0--|


D|-------------------------------------------------------------|
A|-------------------------------------------------------------|
E|-------------------------------------------------------------|
A|-0-0-0-0-0-0-0-0----0-0---0--0----0-0---0--0--0-----0-0---0--|



Verse [1:10-1:28]

D|----------------------------------------|
A|----------------------------------------|(x4)
E|----------------------------------------|
A|-0000000000000000-7777-3333-6666-2222---|



Pre Chorus [1:29-1:37]

D|-----------------------------------------------------------------|
A|-----------------------------------------------------------------|
E|------------------4444444444444444-------------------------------|
A|-0000000000000000------------------88888888888888888-77777777--7-|



Chorus [1:38-2:00]

D|------------------------------------------------------------|
A|------------------------------------------------------------|
E|------------------------------------------------------------|
A|-0-0---0--0----0-0---0--0--0-----0--0--0---0-0-0-0-0-0-0-0--|



D|---------------------------------------------------------------------|
A|---------------------------------------------------------------------|
E|---------------------------------------------------------------------|
A|-0-0---0--0----0-0---0--0--0-----0--0--0---000000000000000000000000--|



D|-------------------------------------------------------------|
A|-------------------------------------------------------------|
E|-------------------------------------------------------------|
A|-8888888888888888---0-0---0--0----0-0---0--0--0-----0--0--0--|


D|-------------------------------------------------------------|
A|-------------------------------------------------------------|
E|-------------------------------------------------------------|
A|-0-0-0-0-0-0-0-0----0-0---0--0----0-0---0--0--0-----0--0--0--|


Breakdown [2:01-2:24]

D|----------------------------------------------------------------------|
A|----------------------------------------------------------------------|
E|----------------------------------------------------------------------|
A|-0-0---0--0-----------88888888--0-0---0--0----0-0---0--0--0----0-0---0|

D|----------------------------------------------------------------------|
A|----------------------------------------------------------------------|
E|----------------------------------------------------------------------|
A|-0-0---0--0----0-0---0--0-----------8-8-8-8-8-8-8-8---0-0---0--0------|

D|-------------------------------------------------------------|
A|-------------------------------------------------------------|
E|-------------------------------------------------------------|
A|-0-0---0--0----0-0---0-----0-0---0--0-----0~~~~~~~~~~~~~~~~--|


Verse [2:25-2:57]

D|----------------------------------------|
A|----------------------------------------|(x2)
E|----------------------------------------|
A|-0000000000000000-7777-3333-6666-2222---|

D|-----------------------------------------------------------------|
A|-----------------------------------------------------------------|
E|-----------------------------------------------------------------|
A|-0-0---0--0-----------0-0---0--0----0-0---0--0--0------0-0---0---|

D|------------------------------------------------------------------------|
A|------------------------------------------------------------------------|
E|------------------------------------------------------------------------|
A|-000000000000000000000000-8888888888888888--0-0---0--0----0-0---0--0--0-|

D|----------------------------------------------------------------------|
A|----------------------------------------------------------------------|
E|----------------------------------------------------------------------|
A|-0--0--0---0-0-0-0-0-0-0-0---0-0---0--0---0-0---0--0--0------0--0--0--|


Outro [2:58-3:51]

D|----------------------------------------------------------------|
A|----------------------------------------------------------------|(x3)
E|-1--1--1~~~~--1--1--1~~~~~--1--5--5--5~~~--5--3--3--3~~~~--3----|
A|----------------------------------------------------------------|


D|----------------------------------------------------------------|
A|----------------------------------------------------------------|
E|-1--1--1~~~~--1--1--1~~~~---1--5--5--5~~~--5--3--3--3~~~~--3----|
A|----------------------------------------------------------------|


The end.
comments
We did not receive enough feedback on this tab! Please rate:
print report bad tab
1 2 3 4 5
1 comment total.
0 reply
MikeSb7 wrote on March 23 2013, 03:41 pm

Outro [2:58-3:51]
I made a mistake on the outro so here it is.
D|---------------------------------------------------------------|
A|---------------------------------------------------------------|(x3)
E|-1-1-1-1~~~~--1-1-1-1~~~~~--1--5-5-5-5~~~--5-3-3-3-3~~~~--3----|
A|---------------------------------------------------------------|

D|--------------------------------------------------------------------|
A|--------------------------------------------------------------------|
E|-1-1-1-1~~~~--1-1-1-1~~~~~--1--5-5-5-5~~~--5--3-3-3-3~~~~--3--1~~~~-|
A|--------------------------------------------------------------------|

I want to post or [tab]
guest
You may want to rate the tab now too:
select rating
Please do not post tabs as comments. Select "correction" instead!