Oops, an error
Loading. Please wait.

Cobwebs Bass Tab

version 1
version 1

Whole song

Interactive

2,034 views 6 this week
no commentswrite comment
1 2 3 4 5
please rate
add to favorites
launch autoscroll
font size
0
reset
guitar tuner
Tab Pro tools
  • play this tab
  • loop segment
  • change instrument
  • show fretboard
  • metronome
Autoscroll
slow
fast
+/-
esc
set tempo
stop
Contributor
Difficulty
intermediate
----------------------------------------------------------------------------
                             COBWEBS - Motionless in White
----------------------------------------------------------------------------

Tabbed By : NzDowns14
e-mail: NzDowns14@gmail.com

Tuning: Standard

Intro (0:00-0:10)
G|---------------111------------------|
D|----------4~444---------------------|   x2
A|-1~111111----------1~111111---------|
E|----------------------------0~00000-|

Verse 1 (0:11-0:32)
G|-----------|                G|------------------1(x8)-|
D|-----------|   *Rest for*   D|------4(x16)------------|
A|-00044--1~-|   4 measures   A|-1(x8)------4(x16)------|
E|-----------|                E|------------------------|

Prechorus (0:33-0:38)
G|-1(x8)----------1(x8)-|
D|------4(x8)-----------|
A|-----------4(x8)------|
E|----------------------|

Chorus (0:34-1:00)
G|-1(x8)----------------------------------------1(x16)-|
D|------4(x8)~-4(x8)-----------------------------------|   x2
A|-------------------111111111~~~11-11-1--4(x16)-------|
E|-----------------------------------------------------|

Post-Chorus (1:01-1:05)
G|--------------111----------------|
D|---------4~444-------------------|
A|-1~111111---------1~111111--4\\\-|
E|---------------------------------|

Verse 2 (1:06-1:27)
G|------------------1(x16)-|        G|-11-111-111-11-|
D|------4(x16)-------------|   x2   D|---------------|
A|-1(x16)-----4(x16)-------|        A|---------------|
E|-------------------------|        E|---------------|

Chorus (1:28-1:48)
G|-1(x8)----------------------------------------1(x16)-|
D|------4(x8)~-4(x8)-----------------------------------|   x2
A|-------------------111111111~~~11-11-1--4(x16)-------|
E|-----------------------------------------------------|

Bridge (1:49-2:08)
G|------------------------------------------------|
D|----------------------------------3-3~----------|
A|-1~~~-11111111-1-1-1~-11-1111-1-1------11111111-|
E|------------------------------------------------|

G|-------------------------------------3---3~-|
D|--------------------------------------------|
A|-1111111--1--------1--------11111111---1----|
E|-------------1--0-----0--1------------------|

G|------3---3-----6------------------3--------|
D|--------------------------------------4--3--|
A|-1--1--------1-----11111111-111111----------|
E|--------------------------------------------|

Verse 3 (2:09-2:36)
G|-------------------------------------------------------------|
D|-4(x8)-4~-4(x16)--------------3(x8)-4(x8)-4~--444444---------|
A|-----------------111-111-4(x8)-----------------------111-111-|
E|-------------------------------------------------------------|

G|-------------------------------------------------------------|
D|-------------4~---------------3(x8)-4(x8)-4~--444444---------|
A|-4(x8)-3(x8)----111111-1-4(x8)-----------------------111-111-|
E|-------------------------------------------------------------|

Bridge 2 (2:37-2:59)
G|-------------|
D|-------------|   *Rest for*
A|-44443333----|   2 Measures
E|-------------|

G|-------------------------------------------------------------------------|
D|-------------------------------------------------------------------------|
A|-1111-1111-1111-1111-1111-1-1111-1111-11-1-11-1-11-1-11-1-1111-1-111111-8|
E|-------------------------------------------------------------------------|

G|--------------------------------------------------|
D|--------------------------------------------------|
A|-2222-2222-2222-2222-2222-2-2222-2222-2(x32)-1~~~-|
E|--------------------------------------------------|

Chorus (3:00-3:20)
G|-1(x8)----------------------------------------1(x16)-|
D|------4(x8)~-4(x8)-----------------------------------|   x2
A|-------------------111111111~~~11-11-1--4(x16)-------|
E|-----------------------------------------------------|

Outro (3:21-3:39)
G|-----------------------------------------------------|
D|-----------------------------------------------------|
A|-1~--x4x3xx1--x14x1313--xx4x3431---------------------|
E|-----------------------------------------------------|

| /  slide up
| \  slide down
| h  hammer-on
| p  pull-off
| ~  vibrato
| +  harmonic
| x  Mute note
============================================================================
comments
We did not receive enough feedback on this tab! Please rate:
print report bad tab
1 2 3 4 5
I want to post or [tab]
guest
You may want to rate the tab now too:
select rating
Please do not post tabs as comments. Select "correction" instead!