Oops, an error
Loading. Please wait.

Devils Night Bass Tab

version 1
version 1

Whole song

Interactive

6,220 views 30 this week
no commentswrite comment
1 2 3 4 5
excellent!
x 2
add to favorites
launch autoscroll
font size
0
reset
guitar tuner
Tab Pro tools
  • play this tab
  • loop segment
  • change instrument
  • show fretboard
  • metronome
Autoscroll
slow
fast
+/-
esc
set tempo
stop
Difficulty
Tuning
intermediate
A E A D F# B
Tab by Mad Jensen and XX99DEADdDEMON

Ok so this tab was made by Mads Jensen, I have just fixed a few errors. But yeh credit 
to Mads for writing the tab and me just correcting a few errors



Tuning is drop A (AEAD) (AEADF#)


Order of Song:
Intro
Verse
Chorus
Intro 2
Verse
Chorus
Chorus
Breakdown
Breakdown 2
Breakdown
Chorus
Breakdown 2
Outro


Intro: Guitar plays, no bass

Aaaaaarh GO!

--------------------------------------------------------------|
--------------------------------------------------------------|
--------------------------------------------------------------|
-000-000-000-000--0-00-0-0-0-000--000000--0-00-00-0-12/2------|   x2


Verse:

-------------------------------------------------------------------------------|
-------------------------------------------------------------------------------|
-------------------------------------------------------------------------------|
E-0-0-7-0-0-7-0-7-0-0-1-0-0-0-4-5-4-6-0-0-7-0-0-7-0-7-0-0-1-0-0-0-4-5-4-6------|   x4


Chorus:

---------------------------------------------------------------------|
---------------------------------------------------------------------|
------------------3-3-3-3-3-3----1-1-1-1-1-1-------------------------|
--0-0-0-0-0-0-----------------------------------5--5--5--7--7--------|    x2

Intro 2
----------------------------------------------------------------|
----------------------------------------------------------------|
----------------------------------------------------------------|
-000-000-000-000--0-00-0-0-0-000--000000--0-00-00-0-12/2--------|     x2

Verse:

-----------------------------------------------------|
-----------------------------------------------------|
-----------------------------------------------------|
E-0-0-7-0-0-7-0-7-0-0-1-0-0-0-4-5-4-6----------------|     x7

YOU FUCKING FAKE ASS HIPOCRATE!
 --------------------------|
---------------------------|
---------------------------|
E-0-0-7-0-0-7-0-7----------|

Chorus:

--------------------------------------------------------------------|
--------------------------------------------------------------------|
------------------3-3-3-3-3-3----1-1-1-1-1-1------------------------|
--0-0-0-0-0-0-----------------------------------5--5--5--7--7-------|   x2

---------------|
---------------|
---------------|
-0-------------|
Forever and always!

We've been through everything...
-------------------|
-------------------|
-------------------|
-12/2-0------------|


Breakdown:

-----------------------------|
-----------------------------|
-----------------------------|
-1-0-0-0-0-0-0-0-|    x12----| (quite fast)

THINK BEFORE YOU FUCKING SPEAK!

Breakdown 2:

--------------------------------------------------------------------------------------|
--------------------------------------------------------------------------------------|
--------------------------------------------------------------------------------------|
-1p0--0-0--|(every time you repeat this part add a "0" straight before the "1")   x15-|

------------------------|
------------------------|
------------------------|
-0-0-0-0-0-0-0-0--------|    x4

I SAID GO FUCK YOURSELF!!!

Chorus:

----------------------------------------------------------------------|
----------------------------------------------------------------------|
------------------3-3-3-3-3-3----1-1-1-1-1-1--------------------------|
--0-0-0-0-0-0-----------------------------------5--5--5--7--7---------|     x4


Breakdown 2:

--------------------------------------------------------------------------------|
--------------------------------------------------------------------------------|
--------------------------------------------------------------------------------|
-1p0--0-0-|(every time you repeat this part add a "0" straight before the "1----| x7

Outro:

------------------------|
------------------------|
------------------------|
-1p0-0--0-0--0--0-1-0---|
comments
We did not receive enough feedback on this tab! Please rate:
print report bad tab
1 2 3 4 5
I want to post or [tab]
guest
You may want to rate the tab now too:
select rating
Please do not post tabs as comments. Select "correction" instead!