Oops, an error
Loading. Please wait.

Devils Night Tab

version 1
version 1

Whole song

Interactive

30,093 views 54 this week
2 commentsread comments
1 2 3 4 5
x 11
add to favorites
launch autoscroll
font size
0
reset
how to read this tab
guitar tuner
Autoscroll
slow
fast
+/-
esc
set tempo
stop
Help us to improve Ultimate-Guitar.com Take our survey!
×
Author
Difficulty
Tuning
intermediate
A E A D F# B
Artist: Motionless in White
Song: Devils Night                
Album: Infamous (2012)                    
Tuning: Drop A (A,E,A,D,F#,b)

(This is mostly just the rhythm guitar. I added the lead during the chorus. I 
couldn't get the T's on the chorus to line up but tap the double digit notes.)

[Intro 1]
B |--------------------------------------------------------------------------|
F#|--------------------------------------------------------------------------|
D |--------------------------------------------------------------------------|    (x4)
A |--------------------------------------------------------------------------|
E |--------------------------------------------------------------------------|
A |--0-0-0-0-0-0--------0----0----0-----0---0-0----0---0-0-------------------|

[Intro 2]
B |----------------------------------------------------------------------------------------|
F#|----------------------------------------------------------------------------------------|
D |----------------------------------------------------------------------------------------|
A |----------------------------------------------------------------------------------------|
E |-0-0-0---0-0-0----0-0-0---0-0-0----0--0--0---0--0-0--0--0-0-----------------------------|
A |-0-0-0---0-0-0----0-0-0---0-0-0----0--0--0---0--0-0--0--0-0----------------------3b(4)--|

[Pre-Verse]
B |--------|
F#|--------|
D |--------|
A |--12\2--|
E |--12\2--|
A |--12\2--|

[Verse]
B |--------------------------------------------------|
F#|--------------------------------------------------|
D |--------------------------------------------------|
A |--------------------------------------------------|
E |-------0---7-------0-1----------------------------|
A |-0-0-0-0-0-7-0-0-0-0-1---4-5-4-6------------------|

B |--------------------------------------------|
F#|--------------------------------------------|  (every other time in verse)
D |--------------------------------------------|  |-----7*------| 
A |--------------------------------------------|
E |-----0---------0-----0-------0--------------|
A |-0-0-0-0-0-0-0-0-0-0-0-0-0-0-0--------------|

[Chorus]
(Rhythm)
B |------------------------------|
F#|------------------------------|
D |--7----5----3-----------------|
A |--7----5----3--5--7-----------|
E |--5----3----1--5--7-----------|
A |--0------------5--7-----------|

[Chorus]
(Lead)(Repeat as many times needed)
              T         T       T     T        T       T         T        T          T
B |-------------------------------------------------------------------|
F#|-------------------------------------------------------------------|
D |-9h10p9h10-14p9-16p9-17p9-9h10p9h10-14p9-16p9-17p9-22p9-21p9-19p9--|
A |-------------------------------------------------------------------|
E |-------------------------------------------------------------------|
A |-------------------------------------------------------------------|

[Chorus] 
(Alternative) (Lead) (Repeat as many times needed)
            T        T        T    T        T         T        T         T        T
B |---------------------------------------------------------------|
F#|-5h6p5h6-10p5-12p5-13p5-5h6p5h6-10p5-12p5-13p5-18p5-17p5-15p5--|
D |---------------------------------------------------------------|
A |---------------------------------------------------------------|
E |---------------------------------------------------------------|
A |---------------------------------------------------------------|

[Breakdown]
(after 2nd Chorus):
B |---------------------------|
F#|---------------------------|
D |---------------------------|
A |---------------------------|
E |---------------------------|
A |-1p0--0-0---0-0-0-0--------|

[Breakdown 2]
B |-------------|
F#|-------------|
D |-------------|
A |-------------|
E |-1-0----0--0-|
A |-1-0----0--0-|

Order of Song:
[Intro 1]
[Intro 2]
[Verse]
[Chorus w/Lead]
[Intro 2]
[Verse]
[Chorus w/Lead]
[Chorus w/Lead]
[Breakdown]
[Breakdown 2]
[Breakdown]
[Chorus w/Lead]
[Breakdown 2] (end with slide like pre verse)


************************************

| \  Slide down
| *  Natural harmonic
| h  Hammer-on
| p  Pull-off  

************************************
Suggest correction
comments
print report bad tab
2 comments total.
0 reply
MusicMan24 1,114 Jul 16, 2014 02:13 PM

Lack of accuracy.

0 reply
Sarxt 10 Apr 01, 2016 04:56 PM

I think the verse sounds better this way :)
x - palm mute
e--------------------------------------------------|
B--------------------------------------------------|
G--------------------------------------------------|
D-x-x-0-x-x-7-x-x-0-x-1-x-0-4-6-4-5----------------|
A-x-x-0-x-x-7-x-x-0-x-1-x-0-4-6-4-5----------------|
E-x-x-0-x-x-7-x-x-0-x-1-x-0-4-6-4-5----------------|

guest
You may want to rate the tab now too:
select rating
Wanna post a correction for this tab? Suggest correction