Oops, an error
Loading. Please wait.

Devils Night Bass Tab

version 2
version 2

Whole song

Interactive

1,902 views 1 this week
no commentswrite comment
1 2 3 4 5
please rate
add to favorites
launch autoscroll
font size
0
reset
guitar tuner
Tab Pro tools
  • play this tab
  • loop segment
  • change instrument
  • show fretboard
  • metronome
×
Best way to learn
"Devils Night"
Autoscroll
slow
fast
+/-
esc
set tempo
stop
Contributor
Intro
D|---------------------------------------------------------------------------------------|
A|---------------------------------------------------------------------------------------|
E|---------------------------------------------------------------------------------------|
A|-000-000-000-000-0-000-000-0-0-000-3b4-------------------------------------------------|

Pre-Verse
D|-------|
A|-------|
E|-------|
A|-12\2--|

Verse 1
D|--------------------------------------------------------------------|
A|--------------------------------------------------------------------|
E|--------------------------------------------------------------------|X4
A|-0-0-7-0-0-7-0-7-0-0-1-0-4-5-4-3----0-0-7-0-0-7-0-7-0-0-1-0-4-5-4-3-|

Chorus
D|---------------------------------------------|
A|---------------------------------------------|
E|--------------3333-3333-1111-11111-----------|
A|-0000-0-0000-0--------------------5-555-7777-|

Verse 2
D|--------------------------------------------------------------------|
A|--------------------------------------------------------------------|
E|--------------------------------------------------------------------|X3
A|-0-0-7-0-0-7-0-7-0-0-1-0-4-5-4-3----0-0-7-0-0-7-0-7-0-0-1-0-4-5-4-3-|

D|-----------------------------------------------------|
A|-----------------------------------------------------|
E|-----------------------------------------------------|x1
A|-0-0-7-0-0-7-0-7-0-0-1-0-4-5-4-3----0-0-7-0-0-7-0-7x-|

Chorus 2
D|---------------------------------------------|
A|---------------------------------------------|
E|--------------3333-3333-1111-11111-----------|x2
A|-0000-0-0000-0--------------------5-555-7777-|

Breakdown Intro
D|-------|
A|-------|
E|-------|
A|-12\2--|

D|---------------------------|
A|---------------------------|
E|---------------------------|
A|-1p0--0~0~--0~0~0~0~-------|

Breakdown 1:
D|-------------|
A|-------------|
E|-------------|
A|-1-0----0--0-|

Chorus 3
D|---------------------------------------------|
A|---------------------------------------------|
E|--------------3333-3333-1111-11111-----------|x4
A|-0000-0-0000-0--------------------5-555-7777-|

Breakdown 2 (Wack the Crap Out of the A String Here!)
D|---------------------------------------------------------------------------------------|
A|---------------------------------------------------------------------------------------|
E|---------------------------------------------------------------------------------------|
A|-2b-000~0-2b-000~0-2b-000~0-2b-000~0-2b-000~0-2b-000~0-2b-000~0-2b~0-0~----x-----------|

Jack Mills
comments
We did not receive enough feedback on this tab! Please rate:
print report bad tab
1 2 3 4 5
I want to post or [tab]
guest
You may want to rate the tab now too:
select rating
Please do not post tabs as comments. Select "correction" instead!