Oops, an error
Loading. Please wait.

Immaculate Misconception Tab

version 2
version 2

Whole song

Interactive

27,885 views 39 this week
1 commentread comment
1 2 3 4 5
excellent!
x 12
add to favorites
launch autoscroll
font size
0
reset
how to read this tab
guitar tuner
Tab Pro tools
  • play this tab
  • loop segment
  • change instrument
  • show fretboard
  • metronome
×
Best way to learn
"Immaculate Misconception"
Autoscroll
slow
fast
+/-
esc
set tempo
stop
Contributor
Difficulty
Tuning
intermediate
A# F A# D# G C
Drop A#/Bb (A#,F,A#,D#,G,C)

Guitar I
Guitar II

This is a fun song to play.
Any corrections you have are appreciated! :)
Some of this stuff isn't exact, so just listen and figure
it all out, yourself.  It's not horribly difficult!

Intro riff (x2)
C |-------------------------------------|
G |-------------------------------------|
D#|-------------------------------------|
A#|-------------------------------------|
F |-0-0-0-0-0-0-0-0~--0-0-0~-000-0-0-0~-|
A#|-1-1-1-1-1-1-1-1~--1-1-1~-111-1-1-1~-|
    . . . . . . . .   . . .  ... . . .

C |-------------------------------------|------------------|
G |-------------------------------------|------------------|
D#|-------------------------------------|------------------| on last
A#|-------------------------------------|-------------1-0~-| time...
F |-0-0-0-0-0~-0000-0~------------------|-------------1-0~-|
A#|-1-1-1-1-1~-1111-1~-0-6-5-0-1-4-0-12-|-0-6-5-0-1-0-1-0~-|
    . . . . .  .... .                                 .

A little iffy on this next part!

Riff II (x2)
C |-----------------------------------------|
G |-----------------------------------------|
D#|-----------------------------------------|
A#|-----------------------------------------|
F |-----------------------------------------|
A#|-0~-00~-00~-00~-00~-00~-00~-00~-00~-1111-|

C |--------------------------------------------|-------------|
G |--------------------------------------------|-------------|
D#|--------------------------------------------|-------------| on last
A#|--------------------------------------------|-8~-7~-1~-0~-| time...
F |-----------------------------------0~-0~-0~-|-8~-7~-1~-0~-|
A#|-0~-0~-00~-00~-00~-00~-00~-00~-00~-1~-1~-1~-|-8~-7~-1~-0~-|
                                      .  .  .

Riff III (x2)
C |-------------------------------------------------------------------|
G |-------------------------------------------------------------------|
D#|-------------------------------------------------------------------|
A#|-------------------------------------------------------------------|
F |-0-------5-------5---------------0-------5-------8---7---5h8p5-4p0-|
A#|-0-0-0-0---8-0-0---8-0-0-8-0-7~--0-0-0-0---8-0-0---0---0-----------|
      . . .     . .     . .   .       . . .     . .   .   .

C |----------------------------------------------------------------|
G |----------------------------------------------------------------|
D#|----------------------------------------------------------------|
A#|----------------------------------------------------------------|
F |-0-------5-------5-------------5~-5-5-5-5-5-5-8~-8-8-8-8-7-5-0~-|
A#|-0-0-0-0---8-0-0---8-0-0-8-0-7-5~-5-5-5-5-5-5-8~-8-8-8-8-7-5-0~-|
      . . .     . .     . .   .

Riff IV - Guitar I
C |----------------------------------|
G |-6-6-6-6-6-6-6-6-6-6-6-6-6-6-6-6~-|
D#|-9-9-9-9-9-9-9-9------------------|
A#|----------------------------------|
F |----------------------------------|
A#|----------------------------------|

Riff V - Guitar I (x8)
C |---------------------------------|
G |-6-6-6-6-6-6-6-6-6-6-6-6-6-6-6-6-|
D#|-----------------9-9-9-9-9-9-9-9-|
A#|---------------------------------|
F |---------------------------------|
A#|---------------------------------|

Guitar II (x2)
C |---------------------------------|
G |---------------------------------|
D#|---------------------------------|
A#|-0-------3-------5-------3-------|
F |-0-(x16)-3-(x16)-3-(x16)-1-(x16)-|
A#|-0-------3-----------------------|

Riff III (x2)
C |-------------------------------------------------------------------|
G |-------------------------------------------------------------------|
D#|-------------------------------------------------------------------|
A#|-------------------------------------------------------------------|
F |-0-------5-------5---------------0-------5-------8---7---5h8p5-4p0-|
A#|-0-0-0-0---8-0-0---8-0-0-8-0-7~--0-0-0-0---8-0-0---0---0-----------|
      . . .     . .     . .   .       . . .     . .   .   .

C |----------------------------------------------------------------|-----------|
G |----------------------------------------------------------------|-----------|
D#|----------------------------------------------------------------|-----------| on last
A#|----------------------------------------------------------------|--------0~-| time...
F |-0-------5-------5-------------5~-5-5-5-5-5-5-8~-8-8-8-8-7-5-0~-|-5-8\1~-0~-|
A#|-0-0-0-0---8-0-0---8-0-0-8-0-7-5~-5-5-5-5-5-5-8~-8-8-8-8-7-5-0~-|-5-8\1~-0~-|
      . . .     . .     . .   .

Riff VI (x2)
C |--------------------------------------------------------|
G |--------------------------------------------------------|
D#|--------------------------------------------------------|
A#|-0~-----------------0~-------------------------------0~-|
F |-0~--------0-0-0-0-00~----------------------------11-0~-|
A#|-0~--------1-1-1-1-10~----0-8-7-0-3*--0-8-7-0-3*--11-0~-|
              . . . . .      .     .     .     .

Riff VII (x2)
C |-----------------------------------------------------------------|
G |-----------------------------------------------------------------|
D#|-----------------------------------------------------------------|
A#|-----------------------------------------------------------------|
F |-00-0-0--00-0-0-00-0--------00-0-0--00-0-0-00-0--0~-00-00-0-0-00-|
A#|-11-1-1--11-1-1-11-1--------11-1-1--11-1-1-11-1--1~-11-11-1-1-11-|
    .. . .  .. . . .. .        .. . .  .. . . .. .  .  .. .. . . ..

Riff IV (x1)
Riff V (x1)

Riff VIII (x4)
C |-----------------------------------------------|
G |-----------------------------------------------|
D#|-----------------------------------------------|
A#|-000000000-0~-0-0~--0-0~--000000000-0-0~--0-0~-|
F |-000000000-0~-0-0~--0-0~--000000000-0-0~--0-0~-|
    ......... .  . .   . .   ......... . .   . .
comments
print report bad tab
1 comment total.
0 reply
jntwardosky wrote on March 7 2015, 03:21 pm

Riff IV - Guitar I
C |----------------------------------|
G |-6-6-6-6-6-6-6-6-6-6-6-6-6-6-6-6~-|
D#|-9-9-9-9-9-9-9-9-1010101010101010~|
A#|----------------------------------|
F |----------------------------------|
A#|----------------------------------|

Riff V - Guitar I (x8)
C |---------------------------------|
G |-6-6-6-6-6-6-6-6-6-6-6-6-6-6-6-6-|
D#|-10101010101010109-9-9-9-9-9-9-9-|
A#|---------------------------------|
F |---------------------------------|
A#|---------------------------------|

It would only make sense for it to be this right?
It's probably wrong but just a suggestion

I want to post or [tab]
guest
You may want to rate the tab now too:
select rating
Please do not post tabs as comments. Select "correction" instead!