Oops, an error
Loading. Please wait.

Reincarnate bass

version 2
version 2

Whole song

  • The other version is nice but lets be real this is... Show more

Interactive

265 views 9 this week
no commentswrite comment
1 2 3 4 5
3 more votes to show rating
add to favorites
×
Save as Personal and add changes to this tab that will be seen only by you. Learn more ›
×
You can save this tab as Personal to edit and correct it or add notes. All changes will be seen only by you. Learn more »
launch autoscroll
font size
0
reset
guitar tuner
edit
Autoscroll
slow
fast
+/-
esc
set tempo
stop
About this tab version
The other version is nice but lets be real this is a heavy song needs to be low on the strings. Was this info helpful? Yes No
PLEASE NOTE: this is in drop A so if 5string just AEADG low to high, if your using a 4string just tune down to
AEAD. Enjoi

[0:04]
G|-------------------------|-------------------------|-------------------------|-----------------------|
D|-------------------------|-------------------------|-------------------------|-----------------------|
A|-----------5-------------|-----------5-------------|-----------5-------------|-----------------------| x2
E|-------------------------|-------------------------|-------------------------|-----------------------|
A|-2-3-2-2-2---2-2-3-2-0-2-|-2-3-2-2-2---2-2-5-3-2-3-|-3-5-2-2-2---2-2-3-2-0-2-|-2-3-2-2-2-2--0-0--0-3-|

[0:30]
G|-------------------------|----------------------------|--------------------------|-----------------------|
D|-------------------------|----------------------------|--------------------------|-----------------------|
A|-----------5-------------|------------5---------------|------------5-------------|-----------------------|
E|-------------------------|----------------------------|--------------------------|-----------------------|
A|-2-3-2-2-2---2-2-3-2-0-2-|--2-3-2-2-2---0-0-0-3-3-3-2-|--2-3-2-2-2---2-2-3-2-0-2-|-2-3-2-2-2-3-0000-3333-|

[0:42]
G|---------------------------|---------------------------|
D|---------------------------|---------------------------|
A|---------------------------|---------------------------| x3
E|-3-3-3-3-3-3-3-3-3-3-3-3-0-|---------------------------|
A|---------------------------|-2-2-2-2-2-0-0-0-0-0-0-0-0-|

G|---------------------------|---------------------------|
D|---------------------------|---------------------------|
A|---------------------------|---------------------------|
E|-3-3-3-3-3-3-3-3-3-3-3-3-0-|-5-5-5-5-5-5-5-5-5-5-5-5-5-|
A|---------------------------|---------------------------|

[1:00]
G|-------------------------|-------------------------|-------------------------|-----------------------|
D|-------------------------|-------------------------|-------------------------|-----------------------|
A|-----------5-------------|-----------5-------------|-----------5-------------|-----------------------|
E|-------------------------|-------------------------|-------------------------|-----------------------|
A|-2-3-2-2-2---2-2-3-2-0-2-|-2-3-2-2-2---2-2-5-3-2-3-|-3-5-2-2-2---2-2-3-2-0-2-|-2-3-2-2-2-2--0-0--0-3-|

[1:16]
G|-------------------------|----------------------------|--------------------------|-----------------------|
D|-------------------------|----------------------------|--------------------------|-----------------------|
A|-----------5-------------|------------5---------------|------------5-------------|-----------------------|
E|-------------------------|----------------------------|--------------------------|-----------------------|
A|-2-3-2-2-2---2-2-3-2-0-2-|--2-3-2-2-2---0-0-0-3-3-3-2-|--2-3-2-2-2---2-2-3-2-0-2-|-2-3-2-2-2-3-0000-3333-|

[1:30]
G|---------------------------|---------------------------|
D|---------------------------|---------------------------|
A|---------------------------|---------------------------| x3
E|-3-3-3-3-3-3-3-3-3-3-3-3-0-|---------------------------|
A|---------------------------|-2-2-2-2-2-0-0-0-0-0-0-0-0-|

G|---------------------------|---------------------------|
D|---------------------------|---------------------------|
A|---------------------------|---------------------------|
E|-3-3-3-3-3-3-3-3-3-3-3-3-0-|-5-5-5-5-5-5-5-5-5-5-5-5-5-|
A|---------------------------|---------------------------|

[1:48]
G|-------|-------|----------------------------------|
D|-------|-------|----------------------------------|
A|-------|-------|----------------------------------|
E|-------|-------|----------------------------------|
A|-32-2--|-32-2--|-32-2---32-2---32-2---32-2-32-2---|

[2:04]
G|-----------------------|----------------------------|
D|-----------------------|----------------------------|
A|-----------------------|----------------------------|
E|-----------------------|----------------------------|
A|-3-2-2--2-2-3-2-2--2-2-|-3-2-2--2-2-3-3-3-3-0-0-0-0-|

G|-----------------------|----------------------------|
D|-----------------------|----------------------------|
A|-----------------------|----------------------------|
E|-----------------------|----------------------------|
A|-3-2-2--2-2-3-2-2--2-2-|--3-2-2--2-2-3-3-3-3--------|

[2:14]
G|-------------------------------|--------------------------------|
D|-------------------------------|--------------------------------|
A|-------------------------------|--------------------------------|
E|-------------------------------|--------------------------------|
A|-3-2-2-2--2-2-2-3-2-2-2--2-2-2-|-3-2-2-2--2-2-2-3-3-3-3-0-0-0-0-|

G|-------------------------------|---------------------------|
D|-------------------------------|---------------------------|
A|-------------------------------|---------------------------|
E|-------------------------------|---------------------------|
A|-3-2-2-2--2-2-2-3-2-2-2--2-2-2-|-3-2-2-2--2-2-2-3-3-3-3/9\-|

[2:22]
G|-------------------------------------------|---------------------------------------------|
D|-------------------------------------------|---------------------------------------------|
A|-------------------------------------------|---------------------------------------------|
E|-------------------------------------------|---------------------------------------------|
A|-2-3-2-3-2-2-3-2-3-2-2-3-2-3-2-3-3-3-3-0-0-|-2-3-2-3-2-2-3-2-3-2-2-3-2-3-2-3-3-3-5-3-2-3-|

G|-----------------------|-----------------------|---------------------|---------------------------|
D|-----------------------|-----------------------|---------------------|---------------------------|
A|-----------------------|-----------------------|---------------------|-------------------------*-|
E|-----------------------|-----------------------|---------------------|-------------------------3-|
A|-3-3-2-2-3-2-2-3-2-3-2-|-2-3-2-3-2-3-3-3-3-0-0-|-2-3-2-3-2-2-3-2-3-2-|-2-3-2-3-2-3-3-3-3-0-0-0---|

[2:49]
G|---------------------------|---------------------------|
D|---------------------------|---------------------------|
A|---------------------------|---------------------------| x3
E|-3-3-3-3-3-3-3-3-3-3-3-3-0-|---------------------------|
A|---------------------------|-2-2-2-2-2-0-0-0-0-0-0-0-0-|

G|---------------------------|-------------------------------|
D|---------------------------|-------------------------------|
A|---------------------------|-------------------------------|
E|-3-3-3-3-3-3-3-3-3-3-3-3-0-|-----------------5-------------|
A|---------------------------|-2-2-2-2-2-2-0-0---0-0-0-0-0-0-|

[3:07]
G|-------------|-----------------------|-------------------|-------------------------|
D|-------------|-----------------------|-------------------|-------------------------|
A|-------------|-----------------------|-------------------|-------------------------|
E|-3-3-3-3-3---|-----------------------|-3-3-3-3-3-3-3-3-3-|-------------------------|
A|-------------|-2-2-2-2-0-0-0-0-0-0-0-|-------------------|-2-2-2-2-2-0-0-0-0-0-0-0-|

G|--------------|-----------------------|-------------------|----------------------|
D|--------------|-----------------------|-------------------|----------------------|
A|--------------|-----------------------|-------------------|----------------------|
E|-3-3-3-3-3--3-|-----------------------|-3-3-3-3-3-3-3-3-3-|-5-5-5-5-5-5-5-5-5-5--|
A|--------------|-2-2-2-2-0-0-0-0-0-0-0-|-------------------|----------------------|

[3:24]
G|---------------------------|--------------------------|
D|---------------------------|--------------------------|
A|---------------------------|--------------------------|
E|---------------------------|--------------------------|
A|-2-3-2-2-3-2-2-2-2-5-5-0-0-|-2-3-2-2-3-2-2-2--3-3-5-5-|

G|---------------------------|-------------------------------|
D|---------------------------|-------------------------------|
A|---------------------------|-------------------------------|
E|---------------------------|---------------------------p-p-|
A|-2-3-2-2-3-2-2-2-2-5-5-0-0-|-2-3-2-2-3-0--0--0-3-3-3-3-2-2-|



************************************

| /  Slide up
| \  Slide down 

************************************

            
            
Suggest correction
Creating personal tab
Creating personal tab
You can edit any tab online and save it as your Personal.

You can edit, replace or remove any tab part or add personal notes – all changes will be seen only by you.

Personal tabs can be accessed anytime from any device, even offline.
Learn more »
Give kudos to tab author, rate the tab!
1 2 3 4 5
comments
print report bad tab
guest
You may want to rate the tab now too:
select rating
Wanna post a correction for this tab? Suggest correction