Oops, an error
Loading. Please wait.

Afraid Bass Tab

version 1
version 1

Whole song

Interactive

5,417 views 3 this week
7 commentsread comments
1 2 3 4 5
accurate
x 8
add to favorites
launch autoscroll
font size
0
reset
guitar tuner
Autoscroll
slow
fast
+/-
esc
set tempo
stop
Help us to improve Ultimate-Guitar.com Take our survey!
×
Afraid by Motley Crue
D,G,C,F tuning

(Intro)                  
F-/12--12--12--12-12--11-----3-----3--3--3--3--3--3---5--5----|
C--0---0---0---0---0---0-----0-----0--0--0--0--0--0---0--0----|
G-------------------------------------------------------------|
D-------------------------------------------------------------|
                                                                        
F---5--5--5/12---11----11--11--11-11-11--11---12--12--12--12--|
C---0--0--0-0----0-----0---0---0---0--0--0----0---0---0---0---|
G-------------------------------------------------------------|
D-------------------------------------------------------------|    
    
F--12--11----3-----3--3--3--3--3--3---5--5--5--5--5/12--11----|
C--0---0-----0-----0--0--0--0--0--0---0--0--0--0--0-0---0-----|
G-------------------------------------------------------------|
D-------------------------------------------------------------|   
 
(Verse)                               
F--11-11-11--11-11--11--12--12--12--12--12--11---3------------|
C--0--0--0---0---0---0--0---0---0----0--0----0---0------------|
G-------------------------------------------------------------|
D-------------------------------------------------------------|

                                                    
F---3--3--3--3--3--3---5--5--5--5--5/12---11-----11-11-11--11-|
C---0--0--0--0--0--0---0--0--0--0--0-0-----0-----0--0--0----0-|
G-------------------------------------------------------------|
D-------------------------------------------------------------|

F--11--11---12-12-12--12-12--11----3-----3--3--3--3--3--3-----|
C--0---0----0--0---0--0---0--0-----0-----0--0--0--0--0--0-----|
G-------------------------------------------------------------|
D-------------------------------------------------------------|
                         
F--5--5--5--5--5/12--11-----11-11-11--11-11--11---------------|
C--0--0--0--0--0-0---0------0--0--0---0---0---0---------------|
G-------------------------------------------------3--3--------|
D-------------------------------------------------------------|

F-------------------------------------------------------------|
C-------------------------------------------------------------|
G-3--3--3--5---5--5--5--5--5--3--3--3--3--3-------------------|
D--------------------------------------------3-----3--3--3--3-|
                                                                        
Chorus                                      
F-------------------------------------------------------------|
C-------------------------------------------------------------|
G------------------------------------------------------------5|
D---3--3---0--0--0--0--0--0--0--0----3--3--3--3--3--3--3--3---|
                     
F-------------------------------------------------------------|
C-----------------------7--7--7--7--7--7--7--7----------------|
G-5--5--5--5--5--5--5---------------------------7--7--7--7--7-|
D-------------------------------------------------------------|
                  
F-------------------------------------------------------------|
C-----------5--5--5--5--5--5--5--5---5----5--5--5--4--4--4--4-|
G-7--7--7-----------------------------------------------------|
D-------------------------------------------------------------|
           
F-------------------------------------------------------------|
C-------------------------------------------------------------|
G--0--0--0--0--0--0--0--0-------------------------------------|
D---------------------------0--0--0--0--0--0--0--0--3--3--3---|
                         
F-------------------------------------------------------------|
C----------------------------------------7--7--7--7--7--7--7--|
G----------------5--5--5--5--5--5--5--5-----------------------|
D-3--3--3--3--3-----------------------------------------------|
                             
F-------------------------------------------------------------|
C---7-------------------------------5--5--5--5--5--5--5--5-4--|
G--------7--7--7--7--7--7--7--7-------------------------------|
D-------------------------------------------------------------|
                                                   
Verse                                                                               
F-12-12-12--12--12--11---3----3--3--3--3--3--3---5--5--5--5--5|
C--0-0---0--0---0---0----0----0--0--0--0--0--0---0--0--0--0--0|
G-------------------------------------------------------------|
D-------------------------------------------------------------|
                                 
F---/12---11---11--11--11--11--11--11---12--12--12--12--12--11|
C----0----0----0---0---0---0----0---0---0----0---0---0--0---0-|
G-------------------------------------------------------------|
D-------------------------------------------------------------|
                   
F--3-----3--3--3--3--3--3----5--5--5--5--5/12----11-----11----|
C--0-----0--0--0--0--0--0----0--0--0--0--0-0-----0------0-----|
G-------------------------------------------------------------|
D-------------------------------------------------------------|
                            
F---11--11--11--11--11----12--12--12--12--12--11----3----3--3-|
C---0---0---0---0---0-----0---0---0---0---0---0-----0----0--0-|
G-------------------------------------------------------------|
D-------------------------------------------------------------|
                             
F-3--3--3--3----5--5--5--5--5/12---11---11--11--11--11--11-11-|
C-0--0--0--0----0--0--0--0--0-0----0----0---0---0---0---0--0--|
G-------------------------------------------------------------|
D-------------------------------------------------------------|
                                     
F-------------------------------------------------------------|
C-------------------------------------------------------------|
G--3--3--3--3--3--5-----5--5--5--5--5----3--3--3--3--3--------|
D-------------------------------------------------------------|
Chorus
F-------------------------------------------------------------|
C-------------------------------------------------------------|
G-------------------------------------------------------------|
D-3--3--3--3--3--3--3---0--0--0--0--0--0--0--0--3--3--3--3--3-|
                                       
F-------------------------------------------------------------|
C--------------------------------------7--7--7--7--7--7--7--7-|
G------------5--5--5--5--5--5--5--5---------------------------|
D-3--3--3-----------------------------------------------------|
                             
F-------------------------------------------------------------|
C-------------------------5--5--5--5--5--5--5----5--5-----5--5|
G-7--7--7--7--7--7--7--7--------------------------------------|
D-------------------------------------------------------------|
                                         
F-------------------------------------------------------------|
C-5--4--4--4--4-----------------------------------------------|
G----------------0--0--0--0--0--0--0--0--0--------------------|
D--------------------------------------------0--0--0--0--0--0-|
                                          
F------------------------------------------------------|
C------------------------------------------------------|
G-------------------------------5--5--5--5--5--5--5--5-|
D-0--0--3--3--3--3--3--3--3--3-------------------------|
                                                      
F-----------------------------------------------------------------------|
C-7--7--7--7--7--7--7--7------------------------------------------------|
G-------------------------7--7--7--7--7--7--7--7------------------------|
D-------------------------------------------------3--3--3--3--3--3--3--3|

(Bridge)                                                                   
F------------------------------------------------------|
C-5--7--7--7--7--7\-5--7--7--7--7--7\-5-7--7--7--7--7\-|
G------------------------------------------------------|
D------------------------------------------------------|
                                       
F------------------------------------------------------|
C--3--3--3--3----------------5--7--7--7--7--7\--5--7---|
G--------------5--5--5--5------------------------------|
D------------------------------------------------------|
                                             
F------------------------------------------------------|
C---7--7--7--7\--5--7--7--7--7--7\---------------------|
G------------------------------------------------------|
D------------------------------------------------------|
                                                                        
(Chorus)
F-----------------------------------------------------------------------|
C-----------------------------------------------------------------------|
G-------------------------------------------------5--5--5--5--5--5--5--5|
D-0--0--0--0--0--0--0--0--3--3--3--3--3--3--3--3------------------------|
                                            
F--------------------------------------------------------|
C--7--7--7--7--7--7--7--7--------------------------------|
G--------------------------------------------------------|
D----------------------------0--0--0--0--0--0--0-0-------|
                         
F--------------------------------------------------------|
C---------------------------------------5---5--5--4---4-4|
G--------------------------------------------------------|
D--3--3--3--3--3--3--3--3--3--3--3--3--------------------|

F--------------------------------------------------------|
C--------------------------------------------------------|
G--0--0--0--0--0--0--0--0--------------------------------|
D----------------------------0--0--0--0--0--0--0--0------|
                     
F------------------------------------------------------------------------|
C--------------------------------------------------7--7--7--7--7--7--7--7|
G--------------------------5--5--5--5--5--5--5--5------------------------|
D-3--3--3--3--3--3--3--3-------------------------------------------------|
                                                       
F---------------------------------------------------------|
C---------------------------------------------------------|
G---------------------------------------------------------|
D--0--0--0--0--0--0--0--0----3--3--3--3--3--3--3--3-------|
                                   
F---------------------------------------------------------|
C-------------5---5--5--4---4--4--------------------------|
G----------------------------------0--0--0--0--0--0--0--0-|
D-3--3--3--3----------------------------------------------|
                       
F-----------------------------------------------------------------------|
C-----------------------------------------------------------------------|
G-------------------------------------------------5--5--5--5--5--5--5--5|
D-0--0--0--0--0--0--0--0--3--3--3--3--3--3--3--3------------------------|
                            
F---------------------------------------------------|
C--7--7--7--7--7--7--7--7---------------------------|
G---------------------------------------------------|
D---------------------------0--0--0--0--0--0--0--0--|
                            
F-----------------------------------------------------------------------|
C-------------------------------------------------7--7--7--7--7--7--7--7|
G-------------------------5--5--5--5--5--5--5--5------------------------|
D-3--3--3--3--3--3--3--3------------------------------------------------|
                    
F---------------------------------------------------|
C---------------------------------------------------|
G---------------------------------------------------|
D--0--0--0--0--0--0--0--0----3--3--3--3--3--3--3--3-|
                                                                            
F---------------------------------------------------|
C----------------------------7--7--7--7--7--7--7--7-|
G--5--5--5--5--5--5--5--5---------------------------|
D---------------------------------------------------|
       
(Repeat until fade out)                                                 
F-----------------------------------------------------------------------|
C-----------------------------------------------------------------------|
G-------------------------------------------------5--5--5--5--5--5--5--5|
D-0--0--0--0--0--0--0--0--3--3--3--3--3--3--3--3------------------------|
                                                                        
F------------------------|
C--7--7--7--7--7--7--7--7|
G------------------------|
D------------------------|

Thanks, please rate it after you learn it.
_TheBassist01_
Suggest correction
comments
print report bad tab
7 comments total. Showing first comments.
-1 reply
BadKarma 20 wrote on June 19 2006, 07:15 pm

Dude this tab sucks more than your mom last nite. Ok first off....its in standard. And the notes are all wrong...go buy some ears.

+1 reply
Kenjiii 143 wrote on October 29 2007, 04:57 pm

I don't play bass but I know that the intro is right if you have it in standard. Just play the same thing but in standard. My guess is that the rest of the tab is right...just play it in standrad :D.

BadKarma, don't be so harsh. U know it gives a much more noble picture of a person if he explains the problem or error calmly and with respect

0 reply
wastedbassist 10 wrote on December 24 2007, 01:57 pm

I think that both of you need to acctually try to tab your own song!! Its not the easiest thing to do!! Have you ever
tried it tuned down? I did! Sounds great!

guest
You may want to rate the tab now too:
select rating
Please do not post tabs as comments. Select "correction" instead!