Oops, an error
Loading. Please wait.

All In The Name Of Bass Tab

version 2
version 2

Whole song

Interactive

2,793 views 3 this week
2 commentsread comments
1 2 3 4 5
excellent!
x 3
add to favorites
launch autoscroll
font size
0
reset
guitar tuner
Tab Pro tools
  • play this tab
  • loop segment
  • change instrument
  • show fretboard
  • metronome
Autoscroll
slow
fast
+/-
esc
set tempo
stop
Contributor
Difficulty
intermediate
Artist:Motley Crue
Song:All In The Name Of...
Album:Girls, Girls, Girls
Bassist:Nikki Sixx
Tabber:Dev Fuld

This is an awesome tune. I've seen a tab er two for this, and the tuning doesn't 
have to be dropped.

Key:
x = times a number
* = let it ring

*Drum intro*

*Guitar intro*

Intro
G:----|
D:----|
A:----|
E:3x32|

Verse
G:-------------|----|-------------|----|
D:-------------|----|-------------|----|
A:3x24-3*-1*-0*|----|3x24-3*-1*-0*|----|
E:-------------|3x32|-------------|3x32|

Pre-Chorus
G:---------------------------------|
D:--------5-5-7-7-8-8-7-7-5-5------|
A:5-5-7-7---------------------7-7-3|
E:---------------------------------|

Chorus 1
G:--------------------------------------------------------------------------|
D:3-2---3--2------3-2---3--2------3-2---3--2------3-2---3--2------3-2---3--2|
A:----3---------------3---------------3-------3x9-----3---------------3-----|
E:------------3x9-------------3x9-----------------------------3x9-----------|

G:---------------------------------|----------------|
D:--------5-5-7-7-8-8-7-7-5-5------|3-2---3--2------|
A:5-5-7-7---------------------7-7-3|----3-----------|
E:---------------------------------|------------3x32|

Verse

Pre-Chorus

Chorus 2
G:--------------------------------------------------------------------------|
D:3-2---3--2------3-2---3--2------3-2---3--2------3-2---3--2------3-2---3--2|
A:----3---------------3---------------3-------3x9-----3---------------3-----|
E:------------3x9-------------3x9-----------------------------3x9-----------|

G:---------------------------------|--------------|
D:--------5-5-7-7-8-8-7-7-5-5------|3-2---3--2----|
A:5-5-7-7---------------------7-7-3|----3---------|
E:---------------------------------|------------3*|

Bridge
G:--------------|--------------|--------------|--------------|-------------|
D:3-2---3--2----|3-2---3--2----|3-2---3--2----|3-2---3--2----|3-2---3--2---|
A:----3---------|----3---------|----3---------|----3---------|----3--------|
E:------------3*|------------3*|------------3*|------------3*|------------3|

Solo
G:---------------------------------------------------|---------------------------------|
D:---------------------------------------------------|--------5-5-7-7-8-8-7-7-5-5------|
A:3x24-3*-1*-0*-3x24-3*-1*-0*------3x24-3*-1*-0*-----|5-5-7-7---------------------7-7-3|
E:----------------------------3x32---------------3x32|---------------------------------|

Chorus 3
G:---------------------------------------------------------------|
D:3-2---3--2------3-2---3--2------3-2---3--2------3-2---3--2-----|
A:----3---------------3---------------3---------------3----------|
E:------------3x9-------------3x9-------------3x9-------------3x9|

G:---------------------------------------------------------------|
D:3-2---3--2------3-2---3--2------3-2---3--2------3-2---3--2-----|
A:----3---------------3---------------3---------------3----------|
E:------------3x9-------------3x9-------------3x9-------------3x9|

G:----------|--------------|
D:3-2---3--2|3-2---3--2----|
A:----3-----|----3---------|
E:----------|------------3*|

End
G:-----------------------------------------|
D:-------------5-7-8-7-5-------------------|
A:---------5-7-----------7-5-7-5-7-5-7-5---|
E:3--3--3*-------------------------------3*|

That's it. Kickass tune. I've already put it in order, so have fun. ALL IN 
THE NAME OF...ALL IN THE NAME OF ROCK! rocklvson@yahoo.com
comments
We did not receive enough feedback on this tab! Please rate:
print report bad tab
1 2 3 4 5
2 comments total.
0 reply
PUNKfromNORWAY wrote on January 22 2008, 08:59 am

I think the pre-chorus is more like
G |-----------------------------------|
D |-----4-4-5-5-6-6-7-7-6-6-5-5-4-4---|
A
|-5-5-----------------------------3-|
E |-----------------------------------|

But hey your the "champ". Good tab!

0 reply
x_Motley-Crue_x wrote on May 14 2009, 02:18 pm

Just learnt it and it sounds great. Thanks for another brilliant Crüe tab!

I want to post or [tab]
guest
You may want to rate the tab now too:
select rating
Please do not post tabs as comments. Select "correction" instead!