Oops, an error
Loading. Please wait.

Anarchy In The Uk Bass Tab

version 1
version 1

Whole song

Interactive

4,572 views 12 this week
no commentswrite comment
1 2 3 4 5
excellent!
x 3
add to favorites
launch autoscroll
font size
0
reset
guitar tuner
Tab Pro tools
  • play this tab
  • loop segment
  • change instrument
  • show fretboard
  • metronome
Autoscroll
slow
fast
+/-
esc
set tempo
stop
Difficulty
novice
Intro
G:|-------------------------------------------------------------------|
D:|-------------------------------------------------------------------|
A:|5555555555555555555555555555553333333333333333333333333333333333333
E:|-------------------------------------------------------------------


Pre-Verse
G:|-------------------------------------------------------------------|
D:|-------------------------------------------------------------------|
A:|--3-3-0-3-3-3-0-3-3-3-0-3-3-3-0-3-3-3-0-3-3-3-0-3-3-3-0-3-3-3-0-3--|
E:|-------------------------------------------------------------------|

Verse
G:|-----------------------------------  |---------------------------------|
D:|-----------------------------------x3|---------------------------------|
A:|--3-3-0-3-3-3-0-3-3-3-0-3-8-8-7-7--  |--3-3-0-3-3-3-0-3-3-3-0-3-3-3----|
E:|-----------------------------------  |---------------------------------|

Chorus
G:|-------------------------------------------------------------------|
D:|-------------------------------------------------------------------|
A:|5555555555555555555555553333333333333333333333322222222220000000000
E:|-------------------------------------------------------------------

Pre-Verse
G:|-----------------------------------|---------------------------------|
D:|-----------------------------------|---------------------------------|
A:|--3-3-0-3-3-3-0-3-3-3-0-3-8-8-7-7--|--3-3-0-3-3-3-0-3-3-3-0-3-3-3----|
E:|-----------------------------------|---------------------------------|

Verse
G:|-----------------------------------  |---------------------------------|
D:|-----------------------------------x3|---------------------------------|
A:|--3-3-0-3-3-3-0-3-3-3-0-3-8-8-7-7--  |--3-3-0-3-3-3-0-3-3-3-0-3-3-3----|
E:|-----------------------------------  |---------------------------------|

Chorus
G:|-------------------------------------------------------------------|
D:|-------------------------------------------------------------------|
A:|5555555555555555555555553333333333333333333333322222222220000000000
E:|-------------------------------------------------------------------


Before Solo
G:|---------------------------------------------------------|
D:|---------------------------------------------------------|
A:|--3-3-0-3-3-3-0-3-3-3-0-3-3-3-0-3-3-3-0-3-3-3-0-3-3-3----|
E:|---------------------------------------------------------|


Solo
G:|-------------------------------------------------------------------|
D:|-------------------------------------------------------------------|
A:|--5-5-5-5-5-5-5-5-7-7-7-7-7-7-7-7-5-5-5-5-5-5-5-5-7-7-7-7-7-7-7-7--|
E:|-------------------------------------------------------------------|

G:|-------------------------------------------------------------------|
D:|--------------------------------------------------5-5-5-5-5-5-5-5--|
A:|--5-5-5-5-5-5-5-5-7-7-7-7-7-7-7-7-5-5-5-5-5-5-5-5------------------|
E:|-------------------------------------------------------------------|

G:|---------------------------------|
D:|-4-4-4-4-4-4---------------------|
A:|---------------------------------|
E:|-------------2-2-2-2-2-2-2-------|


Pre-Verse
G:|---------------------------------------------------------|
D:|---------------------------------------------------------|
A:|--3-3-0-3-3-3-0-3-3-3-0-3-3-3-0-3-3-3-0-3-3-3-0-3-3-3----|
E:|---------------------------------------------------------|


Verse
G:|-----------------------------------  |---------------------------------|
D:|-----------------------------------x3|---------------------------------|
A:|--3-3-0-3-3-3-0-3-3-3-0-3-8-8-7-7--  |--3-3-0-3-3-3-0-3-3-3-0-3-3-3----|
E:|-----------------------------------  |---------------------------------|

Chorus
G:|-------------------------------------------------------------------|
D:|-------------------------------------------------------------------|
A:|5555555555555555555555553333333333333333333333322222222220000000000
E:|-------------------------------------------------------------------

Before 2nd Solo
G:|----------------------------------------------------------|
D:|----------------------------------------------------------|
A:|--3-3-0-3-3-3-0-3-3-3-0-3-8-8-7-7--3-3-0-3-3-3-0-3-3-3----|
E:|----------------------------------------------------------|

Second Solo

G:|-------------------------------------------------------------------|
D:|-------------------------------------------------------------------|
A:|--5-5-5-5-5-5-5-5-7-7-7-7-7-7-7-7-5-5-5-5-5-5-5-5-7-7-7-7-7-7-7-7--|
E:|-------------------------------------------------------------------|

G:|-------------------------------------------------------------------|
D:|--------------------------------------------------5-5-5-5-5-5-5-5--|
A:|--5-5-5-5-5-5-5-5-7-7-7-7-7-7-7-7-5-5-5-5-5-5-5-5------------------|
E:|-------------------------------------------------------------------|

Verse
G:|-----------------------------------  |---------------------------------|
D:|-----------------------------------x3|---------------------------------|
A:|--3-3-0-3-3-3-0-3-3-3-0-3-8-8-7-7--  |--3-3-0-3-3-3-0-3-3-3-0-3-3-3----|
E:|-----------------------------------  |---------------------------------|

Chorus
G:|-------------------------------------------------------------------|
D:|-------------------------------------------------------------------|
A:|555555555555555555555555333333333333333333333332222222222----------|
E:|-------------------------------------------------------------------|

G:|-------------------------------------------------------------------|
D:|-------------------------------------------------------------------|
A:|--3-3-0-3-3-3-0-3-3-3-0-3-3-3-0-3-3-3-0-3-3-3-0-3-3-3-0-3-3-3-0-3--|
E:|-------------------------------------------------------------------|

 Chorus
G:|--------------------------------------------------------------------|
D:|--------------------------------------------------------------------|
A:|555555555555555555555555333333333333333333333332222222222-----------|
E:|--------------------------------------------------------------------|

G:|-------------------------------------------------------------------|
D:|-------------------------------------------------------------------|
A:|--3-3-0-3-3-3-0-3-3-3-0-3-3-3-0-3-3-3-0-3-3-3-0-3-3-3-0-3-3-3-0-3--|
E:|-------------------------------------------------------------------|

Chorus
G:|-------------------------------------------------------------------|
D:|-------------------------------------------------------------------|
A:|555555555555555555555555333333333333333333333332222222222----------|
E:|-------------------------------------------------------------------|

G:|-------------------------------------------------------------------|
D:|-------------------------------------------------------------------|
A:|--3-3-0-3-3-3-0-3-3-3-0-3-3-3-0-3-3-3-0-3-3-3-0-3-3-3-0-3-3-3-0-3--|
E:|-------------------------------------------------------------------|

Chorus
G:|--------------------------------------------------------------------|
D:|--------------------------------------------------------------------|
A:|555555555555555555555555333333333333333333333332222222222----3~~~~~-|
E:|--------------------------------------------------------------------|

Thts All, its a pretty easy song, so have fun

P.S Dill Camilo
comments
We did not receive enough feedback on this tab! Please rate:
print report bad tab
1 2 3 4 5
I want to post or [tab]
guest
You may want to rate the tab now too:
select rating
Please do not post tabs as comments. Select "correction" instead!