Oops, an error
Loading. Please wait.

Bad Boy Boogie Bass Tab

version 1
version 1

Whole song

Interactive

1,597 views 3 this week
no commentswrite comment
1 2 3 4 5
please rate
add to favorites
launch autoscroll
font size
0
reset
guitar tuner
Autoscroll
slow
fast
+/-
esc
set tempo
stop
Help us to improve Ultimate-Guitar.com Take our survey!
×
Author
Difficulty
intermediate
Artist:Motley Crue
Song:Bad Boy Boogie
Album:Girls, Girls, Girls
Bassist:Nikki Sixx
Tabber:Dev Fuld

This is a really cool tune. It's like boogie and rock n roll.

Key:
* = let it ring
x = times a number

Intro
G:---------|-----------|
D:-----3-1*|-----3-4-5*|
A:3x15-----|3x13-------|
E:---------|-----------|

G:---------------------------------------------------------------------------|
D:---------------------------------------------------------------------------|
A:-------------------------3-33-33-33-33-33-33-33-3--------------------------|
E:1-11-11-11-11-11-11-11-1--------------------------3-33-33-33-3-1-11-11-11-1|

G:-------------------|
D:-------------------|
A:3-33-33-33-33-3-4-5|
E:-------------------|

Verse
G:-------------------------------------------------------------------------------------|
D:-------------------------------------------------------------------------------------|
A:3-33-33-33-33-33-33-33-33-33-33-33-33-33-33-33-33-33-33-33-33-33-33-33-33-33-33-33-33|
E:-------------------------------------------------------------------------------------|

G:----------|
D:----------|
A:33-33-33-3|
E:----------|

G:---------------------------------------------------------------------------|
D:---------------------------------------------------------------------------|
A:-------------------------3-33-33-33-33-33-33-33-3--------------------------|
E:1-11-11-11-11-11-11-11-1--------------------------3-33-33-33-3-1-11-11-11-1|

G:-------------------|
D:-------------------|
A:3-33-33-33-33-3-4-5|
E:-------------------|

Verse 

Chorus
G:-----------------------------------------------------|
D:-----------------------------------------------------|
A:3--33--3--33--3--33--3--33--3--33--3--33--3--33--3x12|
E:-----------------------------------------------------|

G:---------------------------------------------------------------------------|
D:---------------------------------------------------------------------------|
A:-------------------------3-33-33-33-33-33-33-33-3--------------------------|
E:1-11-11-11-11-11-11-11-1--------------------------3-33-33-33-3-1-11-11-11-1|

G:-------------------|
D:-------------------|
A:3-33-33-33-33-3-4-5|
E:-------------------|

Solo
G:---------------------------------------------------------------|
D:---------------------------------------------------------------|
A:5---------2-3-4-5---------2-3-4-5---------2-3-4-5--------------|
E:--0-1-2-3---------0-1-2-3---------0-1-2-3---------0-1-2-3-2-1-0|

G:---------------------------------------------------------------|
D:---------------------------------------------------------------|
A:5---------2-3-4-5---------2-3-4-5---------2-3-4-5--------------|
E:--0-1-2-3---------0-1-2-3---------0-1-2-3---------0-1-2-3-2-1-0|

G:----------------------------------------------------------------|
D:----------------------------------------------------------------|
A:-------------------------3-33-33-33-33-33-33-33-3---------------|
E:1-11-11-11-11-11-11-11-1--------------------------3-33-33-33-3-1|

G:-------------------|
D:-------------------|
A:3-33-33-33-33-3-4-5|
E:-------------------|

Break

G:---------------------------------------------------------------------------|
D:---------------------------------------------------------------------------|
A:-------------------------3-33-33-33-33-33-33-33-3--------------------------|
E:1-11-11-11-11-11-11-11-1--------------------------3-33-33-33-3-1-11-11-11-1|

G:-------------------|
D:-------------------|
A:3-33-33-33-33-3-4-5|
E:-------------------|

Intro

End (fade out)
G:----------|
D:-------1--|
A:3--33----3|
E:----------|

Thats it. Another tune that needs to be played with attitude. I've already 
put it in order, so enjoy. Any questions or comments, e-mail me at rocklvson@yahoo.com
Suggest correction
Give kudos to tab author, rate the tab!
1 2 3 4 5
comments
print report bad tab
guest
You may want to rate the tab now too:
select rating
Please do not post tabs as comments. Select "correction" instead!