Oops, an error
Loading. Please wait.

Bad Boy Boogie Tab

version 1
version 1

Whole song

Interactive

3,529 views 1 this week
no commentswrite comment
1 2 3 4 5
1 last vote to show rating
add to favorites
launch autoscroll
font size
0
reset
how to read this tab
guitar tuner
Autoscroll
slow
fast
+/-
esc
set tempo
stop
Help us to improve Ultimate-Guitar.com Take our survey!
×
Band- Motley Crue
Song- Bad Boy Boogie

E|----------------------------------------------------------------||
B|----------------------------------------------------------------||
G|----------------------------------10--8-------------------------||
D|---10-10-10--10-10-10--10-10-10---10--8-------------------------||
A|---10-10-10--10-10-10--10-10-10---------------------------------||
E|-8-8--8--8---8--8--8---8--8--8--8-------------------------------||


E|----------------------------------------------------------------||
B|----------------------------------------------------------------||
G|----------------------------------------------------------------||
D|---10-10-10--10-10-10--10-10-10---9-10-11-----------------------||
A|---10-10-10--10-10-10--10-10-10---9-10-11-----------------------||
E|-8-8--8--8---8--8--8---8--8--8--8-7-8--9------------------------||


E|----------------------------------------------------------------||
B|----------------------------------------------------------------||
G|------3--1-1-1h3-------3--1---1h3----5--3--------7--5-----------||
D|------3--1-1-1h3-------3--1---1h3----5--3---3/5--7--5-----------||
A|--------------------------------------------3/5-----------------||
E|-1-1--------------1-1--------------3------3---------------------||


E|----------------------------------------------------------------||
B|----------------------------------------------------------------||
G|-----5--3--3-3h5-5-----3--1--1-1h3-3----5--3--------------------||
D|-----5--3--3-3h5-5-----3--1--1-1h3-3----5--3----9-10-11/--------||
A|------------------------------------------------9-10-11/--------||
E|-3-3---------------1-1----------------3-------3-7-8--9-/--------||

E|----------------------------------------------------------------||
B|----------------------------------------------------------------||
G|---5--3---8-8-6-----5--3-----5--2-------------------------------||
D|---5--3---8-8-6-----5--3-3/5-5--2-------------------------------||
A|-------------------------3/5------------------------------------||
E|-3------6---------3---------------------------------------------||

Chorus
E|--------------------------------||
B|--------------------------------||
G|---------5---2------------------||
D|--5--5---5---2------------------||
A|--3--3--------------------------||
E|--------------------------------||
Repeat
Suggest correction
Give kudos to tab author, rate the tab!
1 2 3 4 5
comments
print report bad tab
guest
You may want to rate the tab now too:
select rating
Wanna post a correction for this tab? Suggest correction