Oops, an error
Loading. Please wait.

Bitter Pill Tab

version 1
version 1

Whole song

Interactive

5,800 views 6 this week
4 commentsread comments
1 2 3 4 5
1 last vote to show rating
add to favorites
launch autoscroll
font size
0
reset
how to read this tab
guitar tuner
Autoscroll
slow
fast
+/-
esc
set tempo
stop
Help us to improve Ultimate-Guitar.com Take our survey!
×
Difficulty
intermediate
Intro

    A         E         G
e|--0---------0---------3-----------------------|
B|--2--2-3----0--3-2----0--0-3------------------|
G|--2---------1---------0-----------------------|
D|--2---------2---------0-----------------------|
A|--0---------2---------2-----------------------|
E|------------0---------3-----------------------|


Part 1
e|------------------------------------------------|
B|----------------------------------------------0-|
G|-1----------------1----------------1-----1--1---|
D|---2-2-2-2-2-2-2----2-2-2-2-2-2-2----2-2---2----|
A|------------------------------------------------|
E|------------------------------------------------|

Bridge
e|--------------------------|
B|--------------------------|
G|--------------------------|
D|-6-x14---7-x14---6-x14----|
A|-4-------5-------4--------|
E|--------------------------|

Chorus

         |------------------------------------|
         |------------------------------------|
         |------6-------7---6---7--6--7-------|
         |-7----6---4---7---6---7--6--7-------|
         |-7----4---4---5---4---5--4--5-------|
         |-5--------2-------------------------|

Outro

         |-----------------|
         |-----------------|
         |-----------------|
         |--2---4---7------|
         |--2---4---7------|
         |--0---2---5------|
Suggest correction
Give kudos to tab author, rate the tab!
1 2 3 4 5
comments
print report bad tab
4 comments total. Showing first comments.
0 reply
Version 41 10 Jan 30, 2007 10:12 PM

um... no

0 reply
humpacow6 82 Dec 21, 2007 06:19 PM

no indeed

0 reply
doomey22a 10 Jan 23, 2010 09:40 PM

I can Kinda see what he's getting at but.... yeah. no

guest
You may want to rate the tab now too:
select rating
Wanna post a correction for this tab? Suggest correction