Oops, an error
Loading. Please wait.

Black Widow Tab

version 2
version 2

Whole song

1,532 views 1 this week
no commentswrite comment
1 2 3 4 5
please rate
add to favorites
launch autoscroll
font size
0
reset
how to read this tab
guitar tuner
Autoscroll
slow
fast
+/-
esc
set tempo
stop
Help us to improve Ultimate-Guitar.com Take our survey!
×
Author
andrew88 399
#----------------------------------PLEASE NOTE---------------------------------#
#This file is the author's own work and represents their interpretation of the #
#song. You may only use this file for private study, scholarship, or research. #
#------------------------------------------------------------------------------##

                                   BLACK WIDOW
                           As recorded by Motley Crue

Transcribed by andrew88
ridethelightning3@hotmail.com

Gtr I (D G C F A D)
Gtr II (D G C F A D)

   Intro
   4/4
    Gtr I
    PM..................................................................|
||------------------|-----------------|-----------------|------------------||
||o-----------------|---------5-------|-----------------|---------5-------o||
||--2-5-4-5-2-5-4-5-|-1-5-4-5---4-5-4-|-0-5-4-5-0-5-4-5-|---5-4-5---4-5-4--||
||------------------|-----------------|-----------------|-4----------------||
||o-----------------|-----------------|-----------------|-----------------o||
||------------------|-----------------|-----------------|------------------||


   Verse
    PM..................................................................|
||------------------|-----------------|-----------------|------------------|
||o-----------------|---------5-------|-----------------|---------5--------|
||--2-5-4-5-2-5-4-5-|-2-5-4-5---4-5-4-|-1-5-4-5-1-5-4-5-|-1-5-4-5---4-5-4--|
||------------------|-----------------|-----------------|------------------|
||o-----------------|-----------------|-----------------|------------------|
||------------------|-----------------|-----------------|------------------|


  PM..................................................................|
|-----------------|-----------------|-----------------|------------------||
|-----------------|---------5-------|-----------------|---------5-------o||
|-0-5-4-5-0-5-4-5-|-0-5-4-5---4-5-4-|---5-4-5---5-4-5-|---5-4-5---4-5-4--||
|-----------------|-----------------|-4-------4-------|-4----------------||
|-----------------|-----------------|-----------------|-----------------o||
|-----------------|-----------------|-----------------|------------------||


  PM..|                                PM..|
|-----------------|------------------|-----------------|--------------------|
|-----------------|------------------|-----------------|--------------------|
|-------2-2-2-5-5-|------------------|-------2-2-2-5-5-|--------------------|
|-3-3-3-----------|-2--(2)b3r=(2)----|-3-3-3-----------|-2b3r=(2)b3r=(2)----|
|-----------------|------------------|-----------------|--------------------|
|-----------------|------------------|-----------------|--------------------|


 Pre-Chorus
  Gtr I
|------------------|---------------------|
|------------------|---------------------|
|-5--5---5---5---2-|-2-------------------|
|-7--7---7---7---3-|-3-------------------|
|------------------|---------------------|
|------------------|---------------------|
|                                        |
| Gtr II                                 |
|                      PM|               |
|------------------|---------------------|
|------------------|---------------------|
|------------------|---5-5-4-----4--5----|
|------------------|----------7--------7-|
|------------------|---------------------|
|------------------|---------------------|


|--------------------|--------------------------|
|--------------------|--------------------------|
|--5---5---5---5---2-|-2------------------------|
|--7---7---7---7---3-|-3------------------------|
|--------------------|--------------------------|
|--------------------|--------------------------|
|                                               |
|--------------------|--------------------------|
|--------------------|--------------------------|
|--------------------|---[5]--4-------[4]--5----|
|-(7)----------------|-----------[7]----------7-|
|--------------------|--------------------------|
|--------------------|--------------------------|


|------------------|----------------|
|------------------|----------------|
|-5--5---5---5---4-|----------------|
|-7--7---7---7---6-|----------------|
|------------------|--------3-------|
|------------------|--0-3-5---0-3-5-|


   Chorus
||---------------|----------------|--------------|----------------||
||o--------------|----------------|--------------|---------------o||
||--5--5--x-4--5-|----------------|--------------|----------------||
||--7--7--x-5--7-|----------------|-7--7--x-5--7-|----------------||
||o--------------|--------3-------|-8--8--x-7--8-|--------3------o||
||---------------|--0-3-5---0-3-5-|--------------|--0-3-5---0-3-5-||


     PM..|             PM..|            PM...|            PM..|
|---------------|----------------|-------------------|---------------|
|---------------|----------------|-------------------|-4--------4-4--|
|-5--------5--5-|-(5)--------5S==|==9------------9S==|=x--------x-x--|
|-7--7-7-7-7--6-|-(6)--6-6-6-6S==|=10--10-10-10-10S==|=4--4-4-4-4-4--|
|---------------|----------------|-------------------|---------------|
|---------------|----------------|-------------------|---------------|


  PM............|                    PM..|
|-----------------|----------------|-----------------|------------------|
|-----------------|----------------|-----------------|------------------|
|-------2-2-2-5-5-|----------------|-------2-2-2-5-5-|------------------|
|-3-3-3-----------|-2--(2)b3r=2----|-3-3-3-----------|-2b3r=(2)b3r=2----|
|-----------------|----------------|-----------------|------------------|
|-----------------|----------------|-----------------|------------------|


 Guitar Solo 1
   ~~~             ~            ~               ~~
|----------------|------------|--------------|--------------|
|----------------|------------|--------------|--------------|
|-[2]----2--4--5-|-1-----4--5-|--------------|--------------|
|----------------|------------|-5----4--5--4s|=12-----------|
|----------------|------------|--------------|--------12\---|
|----------------|------------|--------------|--------12\---|


    ~~~               ~              ~               ~~
|-------------------|--------------|--------------|-------|
|-/10----10--12--13-|-9-----12--13-|-8----7--8--7s|=15----|
|-------------------|--------------|--------------|-------|
|-------------------|--------------|--------------|-------|
|-------------------|--------------|--------------|-------|
|-------------------|--------------|--------------|-------|


 Guitar Solo 2
                                       ~
|------------------------|----------------------------|
|------------------------|----------------------------|
|------------------------|----------------------------|
|------------------------|----------------------------|
|-0--0--0--2--2--2--3--3-|-3--5--5--5--3--------2h3p2-|
|------------------------|----------------------------|


|------------------------|-------------------------|
|------------------------|-------------------------|
|------------------------|-------------------------|
|------------------------|-------------------------|
|-------------------0--0-|-0--2--2--2--2--3--2-----|
|-1--1--1--3--3--3-------|----------------------3--|


|------------------------|----------------------------|
|------------------------|----------------------------|
|-2--2--2--4--4--4--5--5-|-5--7--7--7--5--------4h5p4-|
|------------------------|----------------------------|
|------------------------|----------------------------|
|------------------------|----------------------------|


  PM.............|
|------------------------|---------------------------|
|------------------------|---------------------------|
|----------2--2--2--5--5-|-5--4--4--4--4--5--4-------|
|-3--3--3----------------|----------------------5----|
|------------------------|---------------------------|
|------------------------|---------------------------|

Then play chorus again, then intro until fade out.

Tablature Legend
----------------
 h   - hammer-on
 p   - pull-off
 b   - bend
 pb  - pre-bend
 r   - bend release (if no number after the r, then release immediately)
 /\  - slide into or out of (from/to "nowhere")
 s   - legato slide
 S   - shift slide
  - natural harmonic
[n]  - artificial harmonic
n(n) - tapped harmonic
 ~   - vibrato
 tr  - trill
 T   - tap
 TP  - trem. picking
 PM  - palm muting
\n/  - tremolo bar dip; n = amount to dip
 \n  - tremolo bar down
 n/  - tremolo bar up
/n\  - tremolo bar inverted dip
 =   - hold bend; also acts as connecting device for hammers/pulls
 <>  - volume swell (louder/softer)
 x   - on rhythm slash represents muted slash
 o   - on rhythm slash represents single note slash

Misc Legend
-----------
 |  - bar
||  - double bar
||o - repeat start
o|| - repeat end
*|  - double bar (ending)
 :  - bar (freetime)
 $  - Segno
 &  - Coda
Tempo markers -  = BPM(8/16=s8/s16), where s8 = swing 8ths, s16 = swing 16ths


***************************************************************************************
* Generated using Power Tab Editor by Brad Larsen - http://powertab.guitarnetwork.org *
***************************************************************************************
Suggest correction new What's this?
You can suggest a correction to this tab. Community and Mods will review your correction and vote to approve or reject it.
comments
We did not receive enough feedback on this tab! Please rate:
print report bad tab
1 2 3 4 5
guest
You may want to rate the tab now too:
select rating
Please do not post tabs as comments. Select "correction" instead!