Oops, an error
Loading. Please wait.

Chickstrouble Tab

3,737 views 9 this week
1 commentread comment
1 2 3 4 5
excellent!
x 4
add to favorites
launch autoscroll
font size
0
reset
how to read this tab
guitar tuner
Autoscroll
slow
fast
+/-
esc
set tempo
stop
Help us to improve Ultimate-Guitar.com Take our survey!
×
Author
Difficulty
Tuning
novice
D G C F A D
Pretty easy one here, i'm going to deviate from my usual tabbing style and try this way, 
be faster
but wont look as good...anyways chicks=trouble is played as follows

-intro- 2xs      (string mutes on lead in only)

d-|--------------------------------------------------------------|
a-|--------------------------------------------------------------|
f-|--x-x--2-2---2---2--2--2---2-----2-2---2---2------------------|
c-|--x-x--2-2---2---2--2--2---2-----2-2---2---2-------0-1-0------|
g-|--x-x--0-0---0---0--0--0---0-----0-0---0---0---0-3-------3~~--|
d-|--x-x------3---3---------3---3~~-----3---3--------------------|


-riff 1- 2x's       (intro played underneath)

d-|-----------------------------5------------------------------------------|
a-|-/10-10-10-10-10--/10--8-5---5--/10-10-10-10-10-10--8----5-7-(7b8r7)-5--|
f-|-/9--9--9--9--9---/9---7-5------/9--9--9--9--9--9---7----5-7-(7b8r7)-5--|
c-|---------------------------7---------------------------7----------------|
g-|------------------------------------------------------------------------|
d-|------------------------------------------------------------------------|

-verse 1- intro played 2x's then...

GTR 1

d-|-------------------------------------------------------|
a-|-------------------------------------------------------|
f-|-------------------------------------------------------|
c-|-------------------------------------------------------|
g-|--0-0-3-0-6-0-5-3---0-0-3-0-6-0-5-3---0-0-3-0-6-0-5-3--|
d-|-------------------------------------------------------|

GTR 2

d-|-------------------------------------------------------|
a-|-------------------------------------------------------|
f-|--2-2---------------2-2---------------2-2--------------|
c-|--2-2---------------2-2---------------2-2--------------|
g-|--0-0---------------0-0---------------0-0--------------|
d-|-------------------------------------------------------|

GTR 1                         n.h  bar dips

d-|-----------------------------------------------------|
a-|---------------------------(5)-v-v-v-v---\-----------|
f-|---------------------------(5)-v-v-v-v---\-----------|
c-|---------------------------(5)-v-v-v-v---\-----------|
g-|----------0\bar-dive/--------------------------------|
d-|--0--------------------------------------------------|


GTR 2

d-|-----------------------------------------------------|
a-|-----------------------------------------------------|
f-|--1--1--x---1-1-1--x-x-x-x--1--1--x---1-1-1--x--1-1--|
c-|--2--2--x---2-2-2--x-x-x-x--2--2--x---2-2-2--x--2-2--|
g-|--2--2--x---2-2-2--x-x-x-x--2--2--x---2-2-2--x--2-2--|
d-|--0--0--x---0-0-0--x-x-x-x--0--0--x---0-0-0--x--0-0--|

-chorus-

d-|-----------------------------------------------------|
a-|-----------------------------------------------------|
f-|---2-------7---5--2-----------------2-------7--------|
c-|---2---5---7---5--2-----------------2---5---7-16x----|
g-|---0---5---5---3--0--0-3-0-5-0-3~~--0---5---5--------|
d-|-------3--------------------------------3------------|

                                                              GTR 2
                                                               n.h
d-|-----------------------------------------------------------------------|
a-|----8-8---8-8---8--------------------------8-8---8-8---8----(5)\-------|
f-|----7-7---7-7---7--------------------------7-7---7-7---7----(5)\-------|
c-|----6-6---6-6---6--------------------------6-6---6-6---6----(5)\-------|
g-|----7-7---7-7---7--------------------------7-7---7-7---7---------------|
d-|--0-----0-----0---0---(2-slow-bend-3)----0-----0-----0---0--(2b3)------|
                      (pick while bending)


-riff 2- 2x's

d-|---------------------------------------------------------------------|
a-|---------------------------------------------------5-7-(7b8r7)-5~~---|
f-|---------5----------5-----------------5------------5-7-(7b8r7)-5~~---|
c-|--5h7--7---7---7--7---7-5h7~~--5h7--7---7--/7----7-------------------|
g-|---------------------------------------------------------------------|
d-|---------------------------------------------------------------------|

-verse 2- intro 1x then...

GTR 1

d-|-------------------------------------------------------|
a-|-------------------------------------------------------|
f-|-------------------------------------------------------|
c-|-------------------------------------------------------|
g-|--0-0-3-0-6-0-5-3---0-0-3-0-6-0-5-3---0-0-3-0-6-0-5-3--|
d-|-------------------------------------------------------|

GTR 2

d-|-------------------------------------------------------|
a-|-------------------------------------------------------|
f-|--2-2---------------2-2---------------2-2--------------|
c-|--2-2---------------2-2---------------2-2--------------|
g-|--0-0---------------0-0---------------0-0--------------|
d-|-------------------------------------------------------|


GTR 1
             n.h           slow slide w/ sl. bar
d-|----------------------------------------------------|
a-|-----------------------5//////////////////10--------|
f-|-----------------------5//////////////////9---------|
c-|----------(5)\---------5//////////////////----------|
g-|----------(5)\--------------------------------------|
d-|--0-------------------------------------------------|

GTR 2

d-|----------------------------------------------------|
a-|----------------------------------------------------|
f-|--1--1-x--1-1-1--x-x-x-x---1--1-x--1-1-1--x--1--1---|
c-|--2--2-x--2-2-2--x-x-x-x---2--2-x--2-2-2--x--2--2---|
g-|--2--2-x--2-2-2--x-x-x-x---2--2-x--2-2-2--x--2--2---|
d-|--0--0-x--0-0-0--x-x-x-x---0--0-x--0-0-0--x--0--0---|


-chorus-

d-|------------------------------------------------------------------------|
a-|------------------------------------------------------------------------|
f-|-2-----7--5-2-----------------2-----7--5-2-----------------2-----7------|
c-|-2--5--7--5-2-----------------2--5--7--5-2-----------------2--5--7-16x--|
g-|-0--5--5--3-0--0-3-0-5-0-3~~--0--5--5--3-0--0-3-0-5-0-3~~--0--5--5------|
d-|----3----------------------------3----------------------------3---------|

                                                            GTR 2
                                                             n.h
d-|---------------------------------------------------------------------|
a-|----8-8----8-8---8----------------------8-8----8-8---8----(5)\-------|
f-|----7-7----7-7---7----------------------7-7----7-7---7----(5)\-------|
c-|----6-6----6-6---6----------------------6-6----6-6---6----(5)\-------|
g-|----7-7----7-7---7----------------------7-7----7-7---7---------------|
d-|--0------0-----0---0-(2-slow-bend-3)--0-----0------0---0--(2b3)------|


-breakdown-

d-|----------------------------------------------------------|
a-|----------------------------------------------------------|
f-|--7-7-7-----7-7-7--7-7-7------7-7-7--7-7-7-7---7-7-7------|
c-|--7-7-7-----7-7-7--7-7-7------7-7-7--7-7-7-7---7-7-7--\x--|
g-|--5-5-5-----5-5-5--5-5-5------5-5-5--5-5-5-5---5-5-5--\x--|
d-|----------------------------------------------------------|


-solo-

d-|-----0-----------------------------0-----------------------------|
a-|-----0-------------------8---------0-----------------------------|
f-|-----1-(let-ring)----7-9---9~~-----1-(let-ring)-----7-7---7-9~~--|
c-|-----2------------/9---------------2-------------/9-----9--------|
g-|-----2-----------------------------2-----------------------------|
d-|--0-----------------------------0--------------------------------|

d-|----0-----------------------------------------------12----12----12------|
a-|----0--------------12---------12---------12--------(15b17r15b17r15b17)--|
f-|----1-(let-ring)--(14b16r14)-(14b16r14)-(14b16r14)----------------------|
c-|----2-------------------------------------------------------------------|
g-|----2-------------------------------------------------------------------|
d-|-0----------------------------------------------------------------------|

d-|---12----12----12---------17-----17-17--17-----17---17------17-(20b22)~-|
a-|--(15b17r15b17r15b17)~~--(20b22)-------(20b22)-----(20b22)~~------------|
f-|------------------------------------------------------------------------|
c-|------------------------------------------------------------------------|
g-|------------------------------------------------------------------------|
d-|------------------------------------------------------------------------|

d-|--(20b22r20)-17----17---------------------------------------------------|
a-|----------------20----17-20-(20b22)~~-----------------------------------|
f-|------------------------------------------------------------------------|
c-|------------------------------------/19-17-16-14-17~~--17-16-14---------|
g-|----------------------------------------------------------------15------|
d-|-------------------------------------------------------------------17~--|


-chorus-

d-|--------------------------------------------|
a-|--------------------------------------------|
f-|--2-----7--5-2-----------------2-----7------|
c-|--2--5--7--5-2-----------------2--5--7-32x--|
g-|--0--5--5--3-0--0-3-0-5-0-3~~--0--5--5------|
d-|-----3----------------------------3---------|


-outro-
                                                        GTR 2
                                                         n.h
d-|------------------------------------------------------------------|
a-|----------------------------------------------------(5)\/\/-------|
f-|--------------------------------------------------2-(5)\/\/--2----|
c-|---------0-1-0-----------0-1-0-----------0-1-0----2-(5)\/\/--2----|
g-|--0--0-3-------3-0---0-3-------3-0---0-3-------3--0----------0----|
d-|------------------------------------------------------------------|

ok thats it i hope it wasnt too hard to understand leave me some feedback on whether or 
this worked
for you guys-i'll either keep it or try something else for the next tab.  The music 
be pretty close its hard
to hear all of it but you'll be in the ballpark.  corrections..comments??
Suggest correction
comments
print report bad tab
1 comment total.
0 reply
satchwannabee 10 wrote on January 24 2010, 12:07 pm

You have done a lot of work...GREAT JOB

guest
You may want to rate the tab now too:
select rating
Please do not post tabs as comments. Select "correction" instead!