Oops, an error
Loading. Please wait.

City Boy Blues Bass Tab

version 1
version 1

Whole song

Interactive

1,504 views 3 this week
1 commentread comment
1 2 3 4 5
please rate
add to favorites
launch autoscroll
font size
0
reset
guitar tuner
Autoscroll
slow
fast
+/-
esc
set tempo
stop
Help us to improve Ultimate-Guitar.com Take our survey!
×
This tab is by Jason on Bass Masta. 
pm me if I copied anything wrong.

tuning: one whole-step down

Intro
F:----------------------------------------------------|
C:----------------------------------------------------|
G:--3*--3-3----2*--2-2----1*--1-1------------5-4------|
D:---------------------------------0*--0-2-3----------|
Fireflies and dogfights          Runnin' hot in the heat
Street noise, another bribe      Things too hard to believe-

F:--------------------------------------------------|
C:--------------------------------------------------|
G:----7---5-7-----5-7-------5-4---------------------|
D:-0-----------0------0-2-3-------------------------|
So head out!!

F:--------------------------------------------------|
C:--------------------------------------------------|
G:--------------------------------------------------|
D:-5*-----7---7----5---7*-----5---7*----5---7-------|
My heart's in the country    My feet's in the city with

F:--------------------------------------------------|
C:--------------------------------------------------|
G:-5*-----7--7---7--7*-----5*-----7--7---7--7*------|
D:--------------------------------------------------|
You

F:--------------------------------------------------|
C:--------------------------------------------------|
G:--7-----7--7--7--7-----7--7-----------5-----------|
D:-----------------------------0--2--3-----0--2--3--|
And I just can't seem to break the shackles of the city boy blues

F:------------------------------------------|
C:------------------------------------------|
G:---------4--5-----------2--4--5-----4--5--|
D:---0--------------0--------------0--------|

I got the city boy blues
F:---------------------------------------|
C:------4--5--------2--4--5-----4--5-----|
G:---0--------0--------------0-----------|
D:---------------------------------------|

Thanks for reading! 
Suggest correction
Give kudos to tab author, rate the tab!
1 2 3 4 5
comments
print report bad tab
1 comment total.
0 reply
MaggaraMarine 1,213 wrote on August 16 2010, 07:48 am

Good tab but the intro is wrong. Nikki plays only open D string and the same rhythm as drums. It should be played like this:

Intro
F:------------------------------------------------------|
C:------------------------------------------------------|
G:-----------------------------------------------5-4----|
D:--0---0-0-0---0---0-0-0---0---0-0-0---0--0-2-3--------|

I think all other things are right. 4 stars.

guest
You may want to rate the tab now too:
select rating
Please do not post tabs as comments. Select "correction" instead!