Oops, an error
Loading. Please wait.

Come On And Dance Bass Tab

version 1
version 1

Whole song

Interactive

565 views 1 this week
no commentswrite comment
1 2 3 4 5
3 more votes to show rating
add to favorites
launch autoscroll
font size
0
reset
guitar tuner
Autoscroll
slow
fast
+/-
esc
set tempo
stop
Help us to improve Ultimate-Guitar.com Take our survey!
×
Author
Difficulty
Tuning
intermediate
D G C F A D
-----------------------------------------------------------------------------
                                  
                  Come On and Dance - Motley Crue (BASS)
            
-----------------------------------------------------------------------------
Tabbed by: Scotto10

Tuning: tune all strings down one step

=============================================================================


Bass



     W                   W                   W                 
F||-------------------|-------------------|-------------------|
C||-------------------|-------------------|-------------------|
G||-------------------|-------------------|-------------------|
D||-------------------|-------------------|-------------------|


  W                   Q    Q    Q    Q       Q    Q    Q    Q     
-------------------|----------------------|----------------------|
-------------------|----------------------|----------------------|
-------------------|----------------------|----------------------|
-------------------|-------0---------0----|-------0---------0----|


  Q    Q    Q    E  E           Q    Q    E  E  E  E     Q    Q    E  E  E  E   
-----------------------|-----|------------------------|------------------------|
-----------------------|-----|------------------------|------------------------|
-----------------------|-----|---------------5--------|---------------5--------|
-------0---------0--0--|-----|--0----0-------------0--|--0----0-------------0--|


  Q    Q    Q    E  E     E  E  Q    Q    E  E     Q    Q    E  E  E  E   
-----------------------|------------------------|------------------------|
-----------------------|------------------------|------------------------|
--------------------5--|--L---------------------|---------------5--------|
--0----0---------------|--------5------------0--|--0----0-------------0--|


  Q    Q    E  E  E  E     Q    Q    Q    E  E     E  E  Q    H         
------------------------|-----------------------|----------------------|
------------------------|-----------------------|----------------------|
---------------5--------|--------------------5--|--L-------------------|
--0----0-------------0--|--0----0---------------|--------5-------------|


  E  Q    E  Q    Q       W                   Q.     E  E  E   
-----------------------|-------------------|------------------|
-----------------------|-------------------|------------------|
--5-------0-------5----|--L----------------|--L---------------|
-----------------------|-------------------|---------3--2--1--|


  E  E  E  E  E  E  E  E     E  E  E  E  E  E  E  E   
--------------------------|--------------------------|
--------------------------|--------------------------|
--------5-----4--------5--|-----4-----5-----2--2--2--|
--0--0-----------0--0-----|--------------------------|


  E  E  E  E  E  E  E  E     E  E  E  E  E  E  E  E     Q    E  E  E  E  E  E   
--------------------------|--------------------------|-------------------------|
--------------------------|--------------------------|-------------------------|
--------5-----4--------5--|-----4-----5--------------|-------5-----4--------5--|
--0--0-----------0--0-----|-----------------3--2--1--|--0-------------0--0-----|


  E  E  E  E  E  E  E  E     E  E  E  E  E  E  E  E   
--------------------------|--------------------------|
--------------------------|--------------------------|
-----4-----5-----2--2--2--|--------5-----4--------5--|
--------------------------|--0--0-----------0--0-----|


  E  E  E  E  E  E  E  E     Q    Q    E  E  E  E     Q    Q    E  E  E  E   
--------------------------|------------------------|------------------------|
--------------------------|------------------------|------------------------|
-----4-----5--------------|---------------5--------|---------------5--------|
-----------------3--2--1--|--0----0-------------0--|--0----0-------------0--|


  Q    Q    Q    E  E     E  E  Q    Q    E  E     Q    Q    E  E  E  E   
-----------------------|------------------------|------------------------|
-----------------------|------------------------|------------------------|
--------------------5--|--L---------------------|---------------5--------|
--0----0---------------|--------5------------0--|--0----0-------------0--|


  Q    Q    E  E  E  E     Q    Q    Q    E  E     E  E  Q    H         
------------------------|-----------------------|----------------------|
------------------------|-----------------------|----------------------|
---------------5--------|--------------------5--|--L-------------------|
--0----0-------------0--|--0----0---------------|--------5-------------|


  E  Q    E  Q    Q       W                   Q.     E  E  E   
-----------------------|-------------------|------------------|
-----------------------|-------------------|------------------|
--5-------0-------5----|--L----------------|--L---------------|
-----------------------|-------------------|---------3--2--1--|


  E  E  E  E  E  E  E  E     E  E  E  E  E  E  E  E   
--------------------------|--------------------------|
--------------------------|--------------------------|
--------5-----4--------5--|-----4-----5-----2--2--2--|
--0--0-----------0--0-----|--------------------------|


  E  E  E  E  E  E  E  E     E  E  E  E  E  E  E  E   
--------------------------|--------------------------|
--------------------------|--------------------------|
--------5-----4--------5--|-----4-----5--------------|
--0--0--------------0-----|-----------------3--2--1--|


  E  E  E  E  E  E  E  E     E  E  E  E  E  E  E  E   
--------------------------|--------------------------|
--------------------------|--------------------------|
--------5-----4--------5--|-----4-----5-----2--2--2--|
--0--0-----------0--0-----|--------------------------|


  E  E  E  E  E  S S E  E     E  E  E  E  E  E  E  E     E  E  E  E  H         
---------------------------|--------------------------|-----------------------|
---------------------------|--------------------------|-----------------------|
--------5-----4---------5--|-----4-----5--------------|-----------------------|
--0--0-----------0-0-0-----|-----------------3--2--1--|--0--0--0--------------|


          E  E  E  E  H                   E  E  E  E  H                 
-------|-----------------------|-------|-----------------------|-------|
-------|-----------------------|-------|-----------------------|-------|
-------|-----------------------|-------|-----------------------|-------|
-------|--0--0--0--------------|-------|--0--0--0--------------|-------|


  E  E  E  E  H                   E  E  E  E  H           E  E  E  E  H         
-----------------------|-------|-----------------------|-----------------------|
-----------------------|-------|-----------------------|-----------------------|
-----------------------|-------|-----------------------|-----------------------|
--0--0--0--------------|-------|--0--0--0--------------|--0--0--0--------------|


  E  E  E  E  H           E  E  E  E  H           E  E  Q    H         
-----------------------|-----------------------|----------------------|
-----------------------|-----------------------|----------------------|
-----------------------|-----------------------|----------------------|
--0--0--0--------------|--0--0--0--------------|--0--0--0-------------|


  Q     E  E  H           Q     E  E  H           Q     E  E  H         
-----------------------|-----------------------|-----------------------|
-----------------------|-----------------------|-----------------------|
--7~-------------------|--7~-------------------|--7~-------------------|
--------0--------------|--------0--------------|--------0--------------|


  E  E  Q    H           E  E  Q     Q     Q        Q    Q    E  E  E  E   
----------------------|--------------------------|------------------------|
----------------------|--------------------------|------------------------|
----------------------|--------------------------|---------------5--------|
--0--0--0-------------|--0--0--0~----0~----0~----|--0----0-------------0--|


  Q    Q    E  E  E  E     Q    Q    Q    E  E     E  E  Q    Q    E  E   
------------------------|-----------------------|------------------------|
------------------------|-----------------------|------------------------|
---------------5--------|--------------------5--|--L---------------------|
--0----0-------------0--|--0----0---------------|--------5------------0--|


  Q    Q    E  E  E  E     Q    Q    E  E  E  E     Q    Q    Q    E  E   
------------------------|------------------------|-----------------------|
------------------------|------------------------|-----------------------|
---------------5--------|---------------5--------|--------------------5--|
--0----0-------------0--|--0----0-------------0--|--0----0---------------|


  E  E  Q    H           E  Q    E  Q    Q       W                 
----------------------|-----------------------|-------------------|
----------------------|-----------------------|-------------------|
--L-------------------|--5-------0-------5----|--L----------------|
--------5-------------|-----------------------|-------------------|


  Q.     E  E  E     E  E  E  E  E  E  E  E     E  E  E  E  E  E  E  E   
------------------|--------------------------|--------------------------|
------------------|--------------------------|--------------------------|
--L---------------|--------5-----4--------5--|-----4-----5-----2--2--2--|
---------3--2--1--|--0--0-----------0--0-----|--------------------------|


  E  E  E  E  E  E  E  E     E  E  E  E  E  E  E  E   
--------------------------|--------------------------|
--------------------------|--------------------------|
--------5-----4--------5--|-----4-----5--------------|
--0--0--------------------|-----------------3--2--1--|


  E  E  E  E  E  E  E  E     E  E  E  E  E  E  E  E   
--------------------------|--------------------------|
--------------------------|--------------------------|
--------5-----4--------5--|-----4-----5-----2--2--2--|
--0--0-----------0--0-----|--------------------------|


  E  E  E  E  E  E  E  E     E  E  E  E  E  E  E  E     Q    E  E  Q    E  E   
--------------------------|--------------------------|------------------------|
--------------------------|--------------------------|------------------------|
--------5-----4--------5--|-----4-----5--------------|------------------------|
--0--0--------------0-----|-----------------3--2--1--|-------0--0-------0--0--|


  Q    E  E  Q    E  E     Q    E  E  Q    E  E     Q    E  E  Q    E  E   
------------------------|------------------------|------------------------|
------------------------|------------------------|------------------------|
------------------------|------------------------|------------------------|
-------0--0-------0--0--|-------0--0-------0--0--|-------0--0-------0--0--|


  Q    E  E  Q    E  E     Q    E  E  Q    E  E     Q    E  E  Q    E  E   
------------------------|------------------------|------------------------|
------------------------|------------------------|------------------------|
------------------------|------------------------|------------------------|
-------0--0-------0--0--|-------0--0-------0--0--|-------0--0-------0--0--|


  H        E  E  E  E     E  E  E  E  E  E  E  E     E  E  E  E  E  E  E  E   
-----------------------|--------------------------|--------------------------|
-----------------------|--------------------------|--------------------------|
-----------------------|--------5-----4--------5--|-----4-----5-----2--2--2--|
--------------3--2--1--|--0--0-----------0--0-----|--------------------------|


  E  E  E  E  E  E  E  E     H        E  E  E  E     E  E  E  E  E  E  E  E   
--------------------------|-----------------------|--------------------------|
--------------------------|-----------------------|--------------------------|
--------5-----4--------5--|-----------------------|--------5-----4--------5--|
--0--0-----------0--0-----|--------------3--2--1--|--0--0-----------0--0-----|


  E  E  E  E  E  E  E  E     E  E  E  E  E  E  E  E     E  H        E  E  E   
--------------------------|--------------------------|-----------------------|
--------------------------|--------------------------|-----------------------|
-----4-----5-----2--2--2--|--------5-----4--------5--|-----------------------|
--------------------------|--0--0-----------0--0-----|--------------3--2--1--|


  E  H        E  E  E     E  E  H.             
-----------------------|---------------------||
-----------------------|---------------------||
-----------------------|---------------------||
--0-----------3--2--1--|--0------------------||




Duration Legend
---------------
W - whole
H - half
Q - quarter
E - 8th
S - 16th
T - 32nd
X - 64th
. - note dotted
|-n-|  - n-tuplets


Tablature Legend
----------------
L - tied note
x - dead note
g - grace note
(n) - ghost note
> - accentuded note
NH - natural harmonic
AH - artificial harmonic
TH - tapped harmonic
SH - semi harmonic
PH - pitch harmonic
h - hammer on
p - pull off
b - bend
br - bendRelease
pb - preBend
pbr - preBendRelease
brb - bendReleaseBend
\n/ - tremolo bar dip
\n - tremolo bar dive
-/n - tremolo bar Release up
/n\ - tremolo bar inverted dip
/n - tremolo bar return
-\n - tremolo bar Release down
S - shift slide
s - legato slide
/ -  slide into from below or out of upwards
\ -  slide into from above or out of downwards
~ - vibrato
W - wide vibrato
tr - trill
TP - tremolo picking
T - tapping
S - slap
P - pop
< - fade in
^ - brush up
v - brush down
Suggest correction
Give kudos to tab author, rate the tab!
1 2 3 4 5
comments
print report bad tab
guest
You may want to rate the tab now too:
select rating
Wanna post a correction for this tab? Suggest correction