Oops, an error
Loading. Please wait.

Dancing On Glass Tab

version 1
version 1

Whole song

Interactive

6,728 views 9 this week
no commentswrite comment
1 2 3 4 5
accurate
x 3
add to favorites
launch autoscroll
font size
0
reset
how to read this tab
guitar tuner
Autoscroll
slow
fast
+/-
esc
set tempo
stop
Help us to improve Ultimate-Guitar.com Take our survey!
×
Author
Motley Crue - Dancing on Glass
Tabbed By: bacon5
Email: willfive@comcast.net
^^^^^^^^^^^^^^^^^^^^^^^^^^^^^^
Tuning: Standard (E A D G B E)

[CODE]

intro x2
E|----------------------------------------------------------------||
B|----------------------------------------------------------------||
G|----------------------------------------------------------------||
D|----------------------------------------------------------------||
A|---------5---4-5---4h5p4----------------------------------------||
E|---3-6-3--3------3-------5h6p5----------------------------------||


E|------------------------------------------------||
B|------------------------------------------------||
G|------------------------------------------------||
D|-------------------2~---------------------------||
A|---------5---4-5--------------------------------||
E|---3-6-3---3-----3------------------------------||

verse x3
E|----------------------------------------------------------------||
B|----------------------------------------------------------------||
G|------------5---4--5s4s5----------------------------------------||
D|---5--------5---4--5s4s5----------------------------------------||
A|---3----0-0---0-------------------------------------------------||
E|----------------------------------------------------------------||
        Cant find my doctor....

E|--------------------------------||
B|--------------------------------||
G|------5-4-----------------------||
D|--5---5-4-----------------------||
A|--3-0---------------------------||
E|--------------------------------||

intro x2

verse x3

intro x1

E|------------------------------------------------||
B|------------------------------------------------||
G|------------------------------------------------||
D|----------------------------5-----3--5----------||
A|-------3-2-3-----3---2-3-0--3-----1--3----------||
E|---0-1-------0-0---0----------------------------||
one foot in the grave...

E|------------------------------------------------||
B|------------------------------------------------||
G|------------------------------------------------||
D|---------------------------------2h3p2----------||
A|-------3-2-3-----3---2-3-------0------3h4p3-0---||
E|---0-1-------0-0---0-----0-0-3------------------||

chorus
E|----------------------------------------------------------------||
B|----------------------------------------------------------------||
G|----------------------------------------------------------------||
D|---------------------------------------------2~-----------------||
A|---------5--4-5---4h5p4------------5---4-5----------------------||
E|---3-6-3--3-----3------5h6p5-3-6-3---3-----3--------------------||


E|--------------------------------------------------||
B|--------------------------------------------------||
G|-----3---5----------------------------------------||
D|-----3---5----------------------------------------||
A|-----------------3--------------------------------||
E|---3---3---0-3-5---5-3----------------------------||[/CODE]
Suggest correction
Give kudos to tab author, rate the tab!
1 2 3 4 5
comments
print report bad tab
guest
You may want to rate the tab now too:
select rating
Wanna post a correction for this tab? Suggest correction