Oops, an error
Loading. Please wait.

Dancing On Glass Tab

version 2
version 2

Whole song

Interactive

2,836 views 6 this week
1 commentread comment
1 2 3 4 5
1 last vote to show rating
add to favorites
launch autoscroll
font size
0
reset
how to read this tab
guitar tuner
Autoscroll
slow
fast
+/-
esc
set tempo
stop
Help us to improve Ultimate-Guitar.com Take our survey!
×
Author
Difficulty
intermediate
-------------------------------------------------------------------------------
                             DANCING ON GLASS - Motley Crue
-------------------------------------------------------------------------------
Tabbed by: ironmanben
Email: bentrooper@gmail.com

Tuning: d A F C G D


main riff:
d|-----------------------------------|----------------------------|
A|-----------------------------------|----------------------------|
F|-----------------------------------|----------------------------|
C|----1---2----1-2----1brb(2)--------|----1---2----1-2----4brb(5)-|
G|-0----0----0------0---------2gb(3)-|-0----0----0------0---------|
D|-----------------------------------|----------------------------|


verse 1:
-| x1                     | x2                   | x1              |
d|------------------------|----------------------|-----------------|
A|------------------------|----------------------|-----------------|
F|---2-------5--4-h5p4h5--|-2-------5--4-h5p4----|-2--------5-4----|
C|---0-------0--0-----(0)-|-0-------0000---(0)---|-0--------0-0----|
G|-3----------------------|--------------------3-|-----------------|
D|------------------------|----------------------|-----------------|


verse 2:
     | x3                   | x1              |
d|---|----------------------|-----------------|
A|---|----------------------|-----------------|
F|---|-2-------5--4-h5p4----|-2--------5-4----|
C|---|-0-------0000---(0)---|-0--------0-0----|
G|-3-|--------------------3-|-----------------|
D|---|----------------------|-----------------|


pre-chorus:
d|-----------------------------------------------------------------------|
A|-----------------------------------------------------------------------|
F|----------------------2----------2-----------------------------2-------|
C|----1-0-1--1--0h1-0h1-2----------2-----------1-0-1--1--0h1-0h1-2-------|
G|-----0----------------0----------0------------0----------------0-------|
D|-1-------11-11-------3--------3^--------0-1-------11-11-------3--------|
           xx xx                                    xx xx
d|---------------------------------------------|
A|---------------------------------------------|
F|----2----------------------------------------|
C|----2-----------1-0-1--1--0h1p0----2-2-------|
G|----0------------0----------------------020--|
D|-3^--------0-1-------11-11-----0-3--3-33---3-|
                       xx xx

chorus:
d|-----------------------------------|----------------------------|
A|-----------------------------------|----------------------------|
F|-----------------------------------|----------------------------|
C|----1---2----1-2----1brb(2)--------|----1---2----1-2----4brb(5)-|
G|-0----0----0------0---------2gb(3)-|------0----0------0---------|
D|-----------------------------------|-3--------------------------|

d|-----------------------------------|------------------------------|
A|-----------------------------------|------------------------------|
F|-----------------------------------|----9-9--7--9-9---------------|
C|----1---2----1-2----1brb(2)--------|----9-9--7--9-9---------------|
G|------0----0------0---------2gb(3)-|---------5--7-7-----0-3-2-0---|
D|-1---------------------------------|-0--------------0-3---------3-|

d|-----------------------------------|----------------------------|
A|-----------------------------------|----------------------------|
F|-----------------------------------|----------------------------|
C|----1---2----1-2----1brb(2)--------|----1---2----1-2----4brb(5)-|
G|-0----0----0------0---------2gb(3)-|------0----0------0---------|
D|-----------------------------------|-3--------------------------|

d|-----------------------------------|----------------------------------|
A|-----------------------------------|----------------------------------|
F|-----------------------------------|----9-9--7--9-9-------------------|
C|----1---2----1-2----1brb(2)--------|----9-9--7--9-9-------------------|
G|------0----0------0---------2gb(3)-|---------5--7-7-----0-3-2-0-3^(5)-|
D|-1---------------------------------|-0--------------0-3---------------|


verse 3:
-| x1                   | x2                   | x1              |
d|----------------------|----------------------|-----------------|
A|----------------------|----------------------|-----------------|
F|-2-------5--4-h5p4h5--|-2-------5--4-h5p4----|-2--------5-4----|
C|-0-------0--0-----(0)-|-0-------0000---(0)---|-0--------0-0----|
G|----------------------|--------------------3-|-----------------|
D|----------------------|----------------------|-----------------|
-| (guitar 2:)          |                      |                 |
d|----------------------|----------------------|-----------------|
A|----------------------|----------------------|-----------------|
F|---2--2---------------|---2--2---------------|---2--2----------|
C|---0--0---------------|---0--0---------------|---0--0----------|
G|----------------------|----------------------|-----------------|
D|----------------------|----------------------|-----------------|


bridge:
-| x4                                  | x1           |
d|-------------------------------------|--------------|
A|-------------------------------------|--------------|
F|-2--2-4brb(5)-2-2---2--2-4brb(5)-2-2-|---5--------4-|
C|-0--0-0---(0)-0-0-0-0--0-0---(0)-0-0-|---5------x-4-|
G|-------------------------------------|-0-3------x-2-|
D|-------------------------------------|--------------|
                    x

outro:                                
d|-------------------------------------|
A|-------------------------------------|
F|-2--2-4brb(5)-2-2---2--2-4brb(5)-2-2-|
C|-0--0-0---(0)-0-0-0-0--0-0---(0)-0-0-|
G|-------------------------------------|
D|-------------------------------------|
                    x


Order:
main riff x2
verse 1
main riff x1
verse 2
main riff x1
pre-chorus
chorus
verse 3
main riff x1
verse 3
main riff x1
pre-chorus
chorus
bridge x2
outro x8


************************************

| /   slide up
| \   slide down
| h   hammer-on
| p   pull-off
| ~   vibrato
| +   harmonic
| x   Mute note
| b   Bend
| pb  Pre-bend
| br  Bend release
| pbr Pre-bend release
| brb Bend release bend
| gb  Gradual bend

************************************
Suggest correction
Give kudos to tab author, rate the tab!
1 2 3 4 5
comments
print report bad tab
1 comment total.
0 reply
MotleyGuitarFan 41 Apr 13, 2010 11:37 AM

You posted the numbers to close.

guest
You may want to rate the tab now too:
select rating
Wanna post a correction for this tab? Suggest correction