Oops, an error
Loading. Please wait.

Dont Go Away Mad Just Go Away Bass Tab

version 1
version 1

Whole song

Interactive

13,696 views 18 this week
1 commentread comment
1 2 3 4 5
accurate
x 6
add to favorites
launch autoscroll
font size
0
reset
guitar tuner
Autoscroll
slow
fast
+/-
esc
set tempo
stop
Help us to improve Ultimate-Guitar.com Take our survey!
×
Author
Difficulty
intermediate
Artist:Motley Crue
Song:Don't Go Away Mad (Just Go Away)
Album:Dr.Feelgood
Bassist:Nikki Sixx
Tabber:Dev Fuld

This is an awesome tune with an awesome bass part. I did my best on the "Intro part 2" part. 
Do your best on it, but it sounds good when I play it.

Key:
x = times a number
* = let it ring

Intro part 1
G:--------------------------|
D:------0*--0-2-3*--2-3-0---|
A:3*--3-------------------3*|
E:--------------------------|

Intro part 2
                                                x2
G:---------------7-5-----5-----5-----------------|
D:---2-5-7-5---7-----7-5---7-7---7-5-7-5-7-------|
A:3----------5-----------------------------5-7---|
E:---------------------------------------------8*|

Verse
G:------------------|------------------|------------------|------------------|
D:------------------|------------------|------------------|------------------|
A:3-3--5-5-------3-3|3-3--5-5-------3-3|3-3--5-5-------3-3|3-3--5-5-------3-3|
E:----------1-1-----|----------1-1-----|----------1-1-----|----------1-1-----|

"That's all right..."
G:--------------------------------|-----------------|
D:--------------------------------|-----------------|
A:1-1-1-0-----------3-33-3--3-33-3|1-1-1-0----------|
E:--------3-1-1-1-1---------------|--------3-1-1-1-1|

Intro part 2 x1

Verse

"That's all right..."
G:--------------------------------|--------------------------------|
D:--------------------------------|--------------------------------|
A:1-1-1-0-----------3-33-3--3-33-3|1-1-1-0-----------3-33-3--3-33-3|
E:--------3-1-1-1-1---------------|--------3-1-1-1-1---------------|

G:--------------------------------|----------------------|
D:--------------------------------|----------------------|
A:1-1-1-0-----------3-33-3--3-33-3|1-1-1-0---------------|
E:--------3-1-1-1-1---------------|--------3-1-1-1-1-3x16|

Chorus
G:---------------|---------------|
D:---------------|---------------|
A:3x8-5x8-----3x8|3x8-5x8-----3x8|
E:--------1x8----|--------1x8----|

Solo
G:---------------|---------------|---------------|---------------|
D:---------------|---------------|---------------|---------------|
A:3x8-5x8-----3x8|3x8-5x8-----3x8|3x8-5x8-----3x8|3x8-5x8-----3x8|
E:--------1x8----|--------1x8----|--------1x8----|--------1x8----|

Bridge
G:----------|----------|5-4*--10-5*|5-4*--10-5*|555555-----|
D:----------|----------|-----------|-----------|-------5-3*|
A:3-2*------|3-2*------|-----------|-----------|-----------|
E:------5-3*|------5-3*|-----------|-----------|-----------|

Next part = No Bass

Next part (goes into chorus)
G:-----------|
D:-----------|
A:33333-33333|
E:-----------|

Chorus until End part

End
G:---------------|
D:3--5-3-0-------|
A:---------3*---3|
E:---------------|

That's it. This is one of the Crue's best songs ever. The timeing should be right, if not 
close to right. I already put it in order for you, aren't you lucky? Any questions or comments, 
e-mail me at rocklvson@yahoo.com

Suggest correction
What's this?
You can suggest a correction to this tab. Community and Mods will review your correction and vote to approve or reject it.
comments
print report bad tab
1 comment total.
0 reply
Samu3l 15 wrote on November 30 2009, 07:13 am

Dude...the intro part 1 Intro part 1 should be like this

G:--------------------------|
D:------0*--0-2-3*--2-3-0-2*|
A:3*--3---------------------|
E:--------------------------|

and Intro Part 2 is abit off becoz if listent abit more carefully there are suppose to be more notes and Nikki ply faster at the end of the Intro Part 2.
And from 1:34 onwards there are alittle bit more notes compare to the Verse u post.

But overall ur tab keep this songs simple and easy to ply. And it sounds totally alright if u ply with it.
Good Job. If u can identified thoes stuff i pointed out and correct it then 5 stars no doubt! =) i gave 4 stars!

guest
You may want to rate the tab now too:
select rating
Please do not post tabs as comments. Select "correction" instead!