Oops, an error
Loading. Please wait.

Dont Go Away Mad Just Go Away Tab

version 1
version 1

Whole song

Interactive

31,580 views 42 this week
5 commentsread comments
1 2 3 4 5
excellent!
x 4
add to favorites
launch autoscroll
font size
0
reset
how to read this tab
guitar tuner
Tab Pro tools
  • play this tab
  • loop segment
  • change instrument
  • show fretboard
  • metronome
×
Best way to learn
"Dont Go Away Mad Just Go Away"
Autoscroll
slow
fast
+/-
esc
set tempo
stop
Contributor
Tuning
D A D F# A D
This tab is by jailbait on tTabs. There weren't any good straight up text tabs so i
to post this one.

h- hammer on
p- pull off
tr- tremolo
x- muted note
PM- palm mute
nh- natural harmonic
ph- pinch harmonic
\- slide down
/- slide up
(#)- ringing note
~- let ring
x- pick scrape down
\/- arm down

D tuning- DAFCGD

gtr 1 acoustic
gtr 2 electric

intro-
gtr 1    D                               Em                                  G
d--------2--2-----0-----3-----2-----0----0--2-----0-----2-----0--------------3--3-----3-----3-----3-----3-|
a--------3----3-----3-----3-----3-----0--0----0-----0-----0-----0------------3----3-----3-----3-----3-----|
f--------2------2-----2-----2-----2------0------0-----0-----0-----0----------0------0-----0-----0-----0---|
c--------0-------------------------------2-----------------------------------0----------------------------|
g----------------------------------------2-----------------------------------x----------------------------|
d----------------------------------------0-----------------------------0--2--3----------------------------|

gtr 2, under the above part
d-------------------------------------------------------------------------------|
a-------------------------------------------------------------------------------|
f--------7~---------------------------------------------------------------------|
c--------7~------------------------------2~----------------------------2--4--5~-|
g--x\----5~------------------------------2~----------------------------2--4--5~-|
d----------------------------------------0~----------------------------0--2--3~-|

gtr 1             gtr 2
d--3-2-0-2~-|-----------|
a--3-3-3-3~-|--7-8-5-7~-|
f--2-2-2-2~-|--7-7-7-7~-|
c--0-0-0-0~-|--7-7-7-7~-|
g-----------|--5-5-5-5~-|
d-----------|-----------|
                                   oh    yeah
d--2-2-2-2-2-2-2--0-0-2-0-0-0-0--2-2-2-2-2-3-0--2-2-2-2-2-2-2-2--0-0-2-0-0-0-0--3-3-3-3-3-3-3--|
a--3-3-3-3-3-3-3--0-0-0-0-0-0-0--3-3-3-3-3-3-3--3-3-3-3-3-3-3-3--0-0-0-0-0-0-0--3-3-3-3-3-3-3--|
f--2-2-2-2-2-2-2--0-0-0-0-0-0-0--2-2-2-2-2-2-2--2-2-2-2-2-2-2-2--0-0-0-0-0-0-0--0-0-0-0-0-0-0--|
c--0-0-0-0-0-0-0--2-2-2-2-2-2-2--0-0-0-0-0-0-0--0-0-0-0-0-0-0-0--2-2-2-2-2-2-2--0-0-0-0-0-0-0--|
g-----------------2-2-2-2-2-2-2----------------------------------2-2-2-2-2-2-2--x-x-x-x-x-x-x--|
d-----------------0-0-0-0-0-0-0----------------------------------0-0-0-0-0-0-0--3-3-3-3-3-3-3--|

gtr 2, under the above part
d-------------------------------------------------------------------------------------------|
a-------------------------------------------------------------------8----7-7--10-10-(10)~~~-|
f--7----7----7-----9-9~----9-7---------7----7----7-----9-9~----9-7--------------------------|
c---------9----9----------------7h9------------9----9---------------------------------------|
g-------------------------------------------------------------------------------------------|
d-------------------------------------------------------------------------------------------|

verse- x4, acoustic
d--2-2-2-2-2-2-2--0-0-2-0-0-0-0--2-2-2-2-2-3-0--3-3-3-3-3-3-3-|
a--3-3-3-3-3-3-3--0-0-0-0-0-0-0--3-3-3-3-3-3-3--3-3-3-3-3-3-3-|
f--2-2-2-2-2-2-2--0-0-0-0-0-0-0--2-2-2-2-2-2-2--0-0-0-0-0-0-0-|
c--0-0-0-0-0-0-0--2-2-2-2-2-2-2--0-0-0-0-0-0-0--0-0-0-0-0-0-0-|
g-----------------2-2-2-2-2-2-2-----------------x-x-x-x-x-x-x-|
d-----------------0-0-0-0-0-0-0-----------------3-3-3-3-3-3-3-|

electric, played underneath the above on the 3rd and 4th time through
(Seasons must change...)
d--5-5----2-2---0-0-----5-5--2-0----5-5-5--3-3-|
a--3-3----3-3---3-3-----3-3--3-3----3-3-3--3-3-|
f--2-2----2-2---2-2-----4-4--4-4----4-4-4--4-4-|
c----------------------------------------------|
g----------------------------------------------|
d----------------------------------------------|

(Guess we knew it all along...)       nh nh
d----------------------------------------------------------------------------|
a--10~---(10)----(10)--10--10~--(10)-----------------------------15~----(15)-|
f-----------------------------------------7--7\/-(7)\/-(7)\/-----------------|
c--------------------------------------7-------------------------------------|
g----------------------------------------------------------------------------|
d----------------------------------------------------------------------------|

pre chorus, electric
d--------------------------2-3--3-2-0-2-------------------------|
a--------------------------3-3--3-3-3-3-------------------------|
f--------------------------2-2--2-2-2-2-------------------------|
c--------------------------0-0--0-0-0-0-------------------------|
g--3-3--3-2-0----------------------------3-3--3-2-0-------------|
d--------------3-3--3-2-0----------------------------3-3--3-2-0-|

acoustic
d--2-2-2-2-2-2-2--0-0-2-0-0-0-0--3-3-3-3-3-3-3--2-2-2-2-2-2-2-|
a--3-3-3-3-3-3-3--0-0-0-0-0-0-0--3-3-3-3-3-3-3--3-3-3-3-3-3-3-|
f--2-2-2-2-2-2-2--0-0-0-0-0-0-0--0-0-0-0-0-0-0--2-2-2-2-2-2-2-|
c--0-0-0-0-0-0-0--2-2-2-2-2-2-2--0-0-0-0-0-0-0--0-0-0-0-0-0-0-|
g-----------------2-2-2-2-2-2-2--x-x-x-x-x-x-x----------------|
d-----------------0-0-0-0-0-0-0--3-3-3-3-3-3-3----------------|

electric
d---------------------10---------------------------|
a-----------------------10-------------------------|
f----------7--9-9~--9------9-9--9--9p7--9--9~--(9)-|
c--12~---9-----------------------------------------|
g--------------------------------------------------|
d--------------------------------------------------|

verse- x2, acoustic
d--2-2-2-2-2-2-2--0-0-2-0-0-0-0--2-2-2-2-3-2-0--3-3-3-3-3-3-3-|
a--3-3-3-3-3-3-3--0-0-0-0-0-0-0--3-3-3-3-3-3-3--3-3-3-3-3-3-3-|
f--2-2-2-2-2-2-2--0-0-0-0-0-0-0--2-2-2-2-2-2-2--0-0-0-0-0-0-0-|
c--0-0-0-0-0-0-0--2-2-2-2-2-2-2--0-0-0-0-0-0-0--0-0-0-0-0-0-0-|
g-----------------2-2-2-2-2-2-2-----------------x-x-x-x-x-x-x-|
d-----------------0-0-0-0-0-0-0-----------------3-3-3-3-3-3-3-|

electric, end of 2nd time through (Sleepin half the day...)
d------------------|
a--10-10--10~-(10)-|
f------------------|
c------------------|
g------------------|
d------------------|

electric, played underneath the verse on the 3rd and 4th time through
(They said i could crash...)
d--5-5----2-2---0-0-----5-5--2-0----5-5-5--3-3--15p14-15p14-15p14-15p14-------|
a--3-3----3-3---3-3-----3-3--3-3----3-3-3--3-3--------------------------15-15-|
f--2-2----2-2---2-2-----4-4--4-4----4-4-4--4-4--------------------------------|
c-----------------------------------------------------------------------------|
g-----------------------------------------------------------------------------|
d-----------------------------------------------------------------------------|

pre chorus, electric
d--------------------------2-3--3-2-0-2-------------------------|
a--------------------------3-3--3-3-3-3-------------------------|
f--------------------------2-2--2-2-2-2-------------------------|
c--------------------------0-0--0-0-0-0-------------------------|
g--3-3--3-2-0----------------------------3-3--3-2-0-------------|
d--------------3-3--3-2-0----------------------------3-3--3-2-0-|

d--------------------------2-3--3-2-0-2-------------------------|
a--------------------------3-3--3-3-3-3-------------------------|
f--------------------------2-2--2-2-2-2-------------------------|
c--------------------------0-0--0-0-0-0-------------------------|
g--3-3--3-2-0----------------------------3-3--3-2-0-------------|
d--------------3-3--3-2-0----------------------------3-3--3-2-0-|

(Let our minds runaway...)
d------------------------------------2-3--3-2-0-2-------------------------|
a------------------------------------3-3--3-3-3-3-------------------------|
f------------------------------------2-2--2-2-2-2-------------------------|
c------------------------------------0-0--0-0-0-0-------------------------|
g--x\----0-2-3-3--3-2-0----------------------------3-3--3-2-0-------------|
d------------------------3-3--3-2-0----------------------------3-3--3-2-0-|

electric played underneath the above
d------------------15-14-----------------------17-15--------------------|
a------------------------15-------15-----15-15-------17-17-17-15~--(15)-|
f--14-------14-14-----------16-16---------------------------------------|
c-----12-12---------------------------17--------------------------------|
g-----------------------------------------------------------------------|
d-----------------------------------------------------------------------|

                                                  PM-------------|
d----------------------------------3-3---------------------------|
a----------------------------------3-3---------------------------|
f----------------------------------------------------------------|
c----------------------------------------------2--2-2-2-2-2-2-2--|
g--0-2-3-3--3-2-0------------------------------0--0-0-0-0-0-0-0--|
d-----------------3-3--3-2-0-3-3-3------3-2-x--------------------|

electric, under the above part
d--------15-14-----17-17-15-14-15-15-14-----17-17-15------------------------|
a---------------15-----------------------15-----------17-17~---(17)----(17)-|
f---------------------------------------------------------------------------|
c---------------------------------------------------------------------------|
g--x\-----------------------------------------------------------------------|
d---------------------------------------------------------------------------|

(It goes this way...)
d------------------|
a------------------|
f--4---4---4---4---|
c--5-x-5-x-5-x-5-x-|
g------------------|
d------------------|

chorus
gtr 1
d--2-3--3-2--4-5--5-4--7-8--8-7--2-3--3-2------|
a--3-3--3-3--5-5--5-5--8-8--8-8--3-3--3-3------|
f--2-2--2-2--4-4--4-4--7-7--7-7--2-2--2-2------|
c----------------------------------------------|
g------------------------------------------0-2-|
d----------------------------------------------|

gtr 2
d------------------------------------------------|
a--7-8-8-7--9-10-10-9--12-13-13-12--7-8-8-7------|
f--7-7-7-7--9-9--9--9--12-12-12-12--7-7-7-7------|
c--7-7-7-7--9-9--9--9--12-12-12-12--7-7-7-7------|
g--5-5-5-5--7-7--7--7--10-10-10-10--5-5-5-5--0-2-|
d------------------------------------------------|

solo- chorus underneath
                     ph         -ph-                       -ph-
d--------------------------------------7--------------------------------------------------------14-15-17-----|
a-----------------------------------------10-10-10-------------------15----15-15~-15---15-17-17----------15~-|
f------7~--7---7-9--9--9~~--7--9--9~-9-----------------------------16---16-----------16----------------------|
c-7h9--------9--------------------------------------0-0------------------------------------------------------|
g--------------------------------------------------------7--7-(7)--------------------------------------------|
d------------------------------------------------------------------------------------------------------------|

d--17-17-17--17-17-14-15-14h15p1412--14h14p1210-10\-------10--10--10-10-10---10--10--10-10-10---10--10-10---|
a----------------------------------------------------0--13--13--13---------13--13--13---------13--13-----13-|
f-----------------------------------------------------------------------------------------------------------|
c-----------------------------------------------------------------------------------------------------------|
g-----------------------------------------------------------------------------------------------------------|
d-----------------------------------------------------------------------------------------------------------|

d--10-10--10-10---10-----10--10----------------------------------------------------------------------|
a-------13------13--13-13--13--13-10----13-13--13-12-10------10--------------------------------------|
f------------------------------------13-----------------13-12---13-12-10-12-12-10--------------------|
c---------------------------------------------------------------------------------12-10----------12~-|
g---------------------------------------------------------------------------------------12-10-8-8----|
d----------------------------------------------------------------------------------------------------|

picking tremolo--------------------------------------------------------------------|
d--12-10-12-14-12-14-15-14-15-17--19-17-17-19-21-19-19-21-22-(22)---22-22-22-(22)--|
a----------------------------------------------------------------------------------|
f----------------------------------------------------------------------------------|
c----------------------------------------------------------------------------------|
g----------------------------------------------------------------------------------|
d----------------------------------------------------------------------------------|

inerlude- x3
     PM    PM   PM     PM
d--10---9-----7-----5------|
a--10---10----8-----5------|
f--11---9-----7-----7------|
c-----0----0-----0-----0-0-|
g--------------------------|
d--------------------------|

during interlude 2nd time through
d--22~-14------15-15----22~-14---------22----14------15-15-14----14------------14-15-15-15----22~--(22)-|
a---------15-------------------15----15--15-----15------------15----15----15~--------------17-----------|
f-----------14--------------------14--------------14-------------------14-------------------------------|
c-------------------------------------------------------------------------------------------------------|
g-------------------------------------------------------------------------------------------------------|
d-------------------------------------------------------------------------------------------------------|

d---------------------|
a---------------------|
f--5-5-5--4-4-4--2--0-|
c--5-5-5--5-5-5--2--0-|
g--3-3-3--2-2-2--0--x-|
d-------------------3-|

chorus- x4
gtr 1
d--2-3--3-2--4-5--5-4--7-8--8-7--2-3--3-2------|
a--3-3--3-3--5-5--5-5--8-8--8-8--3-3--3-3------|
f--2-2--2-2--4-4--4-4--7-7--7-7--2-2--2-2------|
c----------------------------------------------|
g------------------------------------------0-2-|
d----------------------------------------------|

gtr 2
d------------------------------------------------|
a--7-8-8-7--9-10-10-9--12-13-13-12--7-8-8-7------|
f--7-7-7-7--9-9--9--9--12-12-12-12--7-7-7-7------|
c--7-7-7-7--9-9--9--9--12-12-12-12--7-7-7-7------|
g--5-5-5-5--7-7--7--7--10-10-10-10--5-5-5-5--0-2-|
d------------------------------------------------|

outro solo, chorus underneath, start at end of 4th chorus
d--------------------------------------------------------7------------------------------------------|
a--8-----------------------7------------------------7~~----7-----------7----7-7---------------15----|
f----9-9-9-9p7--9-9-9~--(9)--7--7--9tr-11p9h11p7~-9-9~~-------9-9p7--9-9--9-9-9--9p7--9-9--16----16-|
c---------------------------------------------------------------------------------------------------|
g---------------------------------------------------------------------------------------------------|
d---------------------------------------------------------------------------------------------------|

d-------------------------17-17-17-17-(17)--17-17-15-17-15h17p1514-14h15p14------------17\--14h15p1412-|
a--15-15-15--15----15-15------------------------------------------------------17-17-17-----------------|
f---------------16-------------------------------------------------------------------------------------|
c------------------------------------------------------------------------------------------------------|
g------------------------------------------------------------------------------------------------------|
d------------------------------------------------------------------------------------------------------|

                                                                       ph
d--12h14p1210-10-10-----------10-10\---------10----------------------------|
a--------------------13-10--13--------13-13-----13-10-----10---------------|
f------------------------------------------------------13----13-11-9-11-11-|
c--------------------------------------------------------------------------|
g--------------------------------------------------------------------------|
d--------------------------------------------------------------------------|

gtr playing chorus
 girl, just go  a  -  way
d--7----8----7--15-------|
a--8---------------------|
f--7-------------------7-|
c----------------------5-|
g----------------------5-|
d------------------------|

d--22-22-22-22-22--22-22\---19h22p1917--17h19p1715--15h17p15p1412--12h14p1210--10h12p10-(10)tr-(12)p(10)\/--|
a-----------------------------------------------------------------------------------------------------------|
f-----------------------------------------------------------------------------------------------------------|
c-----------------------------------------------------------------------------------------------------------|
g-----------------------------------------------------------------------------------------------------------|
d-----------------------------------------------------------------------------------------------------------|

questions email: valkeyrie3@hotmail.com

If I made a mistake in copying, just pm me.
comments
print report bad tab
5 comments total. Showing first comments.
0 reply
DevilsDance76 wrote on May 25 2008, 09:45 pm

this song is not in drop d

0 reply
AsperityX wrote on June 17 2008, 11:07 pm

the way you tabbed it is d standard, not drop d

0 reply
tonedeafidiot wrote on June 18 2008, 12:35 am

yeah, i just noticed that and tried to edit it so the tuning would say d tuning instead of drop d, but it didn't do anything

I want to post or [tab]
guest
You may want to rate the tab now too:
select rating
Please do not post tabs as comments. Select "correction" instead!