Oops, an error
Loading. Please wait.

Down At The Whiskey Bass Tab

version 1
version 1

Whole song

Interactive

443 views 3 this week
no commentswrite comment
1 2 3 4 5
3 more votes to show rating
add to favorites
launch autoscroll
font size
0
reset
guitar tuner
Autoscroll
slow
fast
+/-
esc
set tempo
stop
Help us to improve Ultimate-Guitar.com Take our survey!
×
Author
Song: Down At The Whiskey
Band: Mötley Crüe

Tuning: DADG

/ = Slide Up
\ = Slide Down
n(...) = Keep playing the note that's infront of the bracket
h = Hammer-On

Intro:

|---------------------------------------------------------------------------|
|---------------------------------------------------------3h5--3---5-3------|
|-----------------------3-----3---3---3--------------------------5-----5-3--|
|--\0--0(...)--5(...)-------5---5---5-----0(...)--5(...)--------------------|

Verse:

|-----------------------------------------------------------------------|
|----------------------------------------------------3h5--3---5-3-------|
|-------------------3-----3---3-2-0-------------------------5-----5-3-2-|
|--0(...)--5(...)-------5---5--------0(...)--5(...)---------------------|

|---------------------------------------------|
|----------------2-2-2-2----------------------|
|------------------------3-2-0----------------|
|--2--2-2--2-2-----------------5---5---5---5\-|

Play the verse part two times


Chorus:

|------------------------------------------------------------|
|-------------------------------------------3h5--3---5-3-----|
|--------------------------------------------------5-----5-3-|
|--0(...)--5(...)--2(...)--5(...)--0(...)--------------------|

|-----------------------------------------------------------|
|-----------------------------------------------------------|
|-------------------------------------------3-2---3-2-------|
|--0(...)--5(...)--2(...)--5(...)--0(...)-------5-----5-3-0-|


Bridge:

|---------|
|---------|
|-------5-|
|--0------|

Rest of song:

Verse only once
Chorus and 2nd part of chorus

Pre-Chorus:

|---------------------------------------------|
|---------------------------------------------|
|---------------------------------------------|
|--0--0(...)--2--2(...)--3--3(...)--5--5(...)-|

Chorus --> fade out
Suggest correction
Give kudos to tab author, rate the tab!
1 2 3 4 5
comments
print report bad tab
guest
You may want to rate the tab now too:
select rating
Wanna post a correction for this tab? Suggest correction