Oops, an error
Loading. Please wait.

Dr Feel Good Bass Tab

5,571 views 1 this week
no commentswrite comment
1 2 3 4 5
worth learning
x 3
add to favorites
launch autoscroll
font size
0
reset
guitar tuner
Tab Pro tools
  • play this tab
  • loop segment
  • change instrument
  • show fretboard
  • metronome
×
Best way to learn
"Dr Feel Good"
Autoscroll
slow
fast
+/-
esc
set tempo
stop
Contributor
Difficulty
intermediate
Play x6
G|-----------------------------------------------------------------------------|
D|-----------------------------------------------------------------------------| 1
A|-----------------------------------------------------------------------------|
D|---3-----3--3-----3--3--3--3--3--3---------3-----3--3-----3--3--3--3--3--3---|

G|-----------------------------------------------------------------------------|
D|-----------------------------------------------------------------------------| 2
A|-----------------------------------------------------------------------------|
D|---3-----3--3-----3--3--3--3--3--3---------3-----3--3-----3---3/1----3/1-----|
                                   Play x4
G|--------------------------------------------------------------------------------|
D|----------------------------------------------------------------------------- 3-|
A|---------------------------5--4-------------------------------7--7--------------|
D|---0-----0-2-2-3-3-4-5--------------0-----0-2-2-3-3-4-5-------------------------|

G|-----------------------------------------------------------------------------|
D|-----------------------------------------------------------------------------| 4
A|-----------------------------------------------------------------------------|
D|---5-----3--5------5-----3--0-----5-----3--5-----5-----3--0------------------|
                                Play x2
G|-----------------------------------------------------------------------------|
D|-----------------------------------------------------------------------------| 5
A|-----------------------------------------------------------------------------|
D|---5-----3--5-----5--5--5--5-----5-----3--5------5--5--5--5------------------|

                                    Repeat 3 but only x2

                                   Play x3
E|-----------------------------------------------------------------------------|
D|-----------------------------------------------------------------------------|
A|-----------------------------------------------------------------------------|
D|---3-----5-----0--0--0--0--0--0--0--0----------------------------------------|

G|------------------------------------------|
D|------------------------------------------|
A|------------------------------------------|
D|---3-----5-----7--------------------------|

       Repeat lines 3, 4, 5           Repeat line 3 only X2 not x4

       Repeat line 1 but x3

G|-------------------------------|
D|-------------------------------|
A|-------------------------------|
D|---0------0--0------0----------|

       Repeat line 3 but only x1

G|------------------------------------------|
D|------------------------------------------|
A|------------------------------------------|
D|---3-----3--3-----3--3--3--3--3--3--------|
       Repeat line 3 but only x1

                                   Play x3
G|-----------------------------------------------------------------------------|
D|-----------------------------------------------------------------------------|
A|-----------------------------------------------------------------------------|
D|---3-----5-----0--0--0--0--0--0--0--0----------------------------------------|

G|------------------------------------------|
D|------------------------------------------|
A|------------------------------------------|
D|---3-----5-----7--------------------------|
                                   Play x3
G|-----------------------------------------------------------------------------|
D|-----------------------------------------------------------------------------|
A|-----------------------------------------------------------------------------|
D|---3-----3--3-----3--3--3--3--3--3---------3-----3--3-----3--3--3--3--3--3---|

G|-------------------------------|
D|-------------------------------|
A|-------------------------------|
D|---0------0--0------0----------|
                                   Play x3
E|-----------------------------------------------------------------------------|
D|-----------------------------------------------------------------------------|
A|-----------------------------------------------------------------------------|
D|---3-----5-----0--0--0--0--0--0--0--0----------------------------------------|

G|------------------------------------------|
D|------------------------------------------|
A|------------------------------------------|
D|---3-----5-----7--------------------------|
                    Play x3
G|---------------------------------------------|
D|---------------------------------------------|
A|-------------------------------5--4----------|
D|-----3-----5-----0--0--0--0------------------|

G|------------------------------------------|
D|------------------------------------------|
A|------------------------------------------|
D|---3-----5-----7--------------------------|
            Repeat until fade out
G|--------------------------------------------------------------------------------|
D|--------------------------------------------------------------------------------|
A|---------------------------5--4-------------------------------7--7--------------|
D|---0-----0-2-2-3-3-4-5--------------0-----0-2-2-3-3-4-5-------------------------|
comments
We did not receive enough feedback on this tab! Please rate:
print report bad tab
1 2 3 4 5
I want to post or [tab]
guest
You may want to rate the tab now too:
select rating
Please do not post tabs as comments. Select "correction" instead!