Oops, an error
Loading. Please wait.

Dr Feelgood Bass Tab

version 3
version 3

Interactive

8,693 views 6 this week
2 commentsread comments
1 2 3 4 5
x 8
add to favorites
launch autoscroll
font size
0
reset
guitar tuner
Autoscroll
slow
fast
+/-
esc
set tempo
stop
Help us to improve Ultimate-Guitar.com Take our survey!
×
Author
Difficulty
Tuning
novice
D A D G B E
-----------------------------------------------------------------------------
			     Dr. Feelgood - Motley Crue 
-----------------------------------------------------------------------------

Tabbed By : ajs
e-mail: thegreataj@hotmail.com

Tuning: drop d

intro
G|-----------------------------------------------|
D|-----------------------------------------------| Repeat until
A|-----------------------------------------------| around 0:30
D|-0-0-0-00-00-0-0-0-0-0-00-00-0-0-0-0-0-00-00-0-|

this goes along with bass drums by tommy but i play it goin along with mick on guitar

main beat
G|------------------------------------|
D|--------------------------------3-3-|
A|--------------3-2-------------------|
D|-00-22-33-22-------00-22-33-22------|

Verses part 1  
G|-------------------------------|
D|-------------------------------|
A|-------------------------------| 
D|-5-3-5---5-3-0---5-3-5---5-3-0-|

verse part 2
G|----------------------------------|
D|----------------------------------|
A|----------------------------------|
D|-5-3-5-5-5-5-5-5--5-3-0-0-0-0-0-0-|

chours
G|------------------------------------|
D|--------------------------------3-3-|
A|--------------3-2-------------------|
D|-00-22-33-22-------00-22-33-22------|

play this for 1st guitar solo when vince sing "feel good oh yeah"
G|------------------------------------|
D|--------------------------------3-3-|
A|--------------3-2-------------------|
D|-00-22-33-22-------00-22-33-22------|

chours part 2---this is like half way throught song
G|----------------------------------|   play 2 times then
D|----------------------------------|
A|----------------------------------| 
D|-5---3---000-0-0-0-0--------------|

G|---------------------|
D|---------------------|
A|---------------------|
D|-5---3---7-----------|

repeat intro when vice says "guitar"
intro
G|-----------------------------------------------|
D|-----------------------------------------------| Repeat until
A|-----------------------------------------------| around 0:30
D|-0-0-0-00-00-0-0-0-0-0-00-00-0-0-0-0-0-00-00-0-|


order is so not right but thats how its played the right way
Suggest correction
comments
print report bad tab
2 comments total.
-2 reply
kellynickels 3,014 Sep 09, 2010 08:24 AM

It isn't Drob D dude it's 1 step down, and isn't correct.

0 reply
Timvict5 10 Jan 26, 2011 06:01 PM

@ Kellynickels, or anyone else who wants to waste there time. Yes, Motley Crue plays full step down. But, if your playing live and your song selections vary tuning, its a lot easier to just de-tune one string that all of them or to change an ax. And the song is just as easy in dropped d. That being said this tab is wrong.

guest
You may want to rate the tab now too:
select rating
Wanna post a correction for this tab? Suggest correction