Oops, an error
Loading. Please wait.

Face Down In The Dirt Bass Tab

version 1
version 1

Whole song

Interactive

1,236 views 3 this week
no commentswrite comment
1 2 3 4 5
please rate
add to favorites
launch autoscroll
font size
0
reset
guitar tuner
Autoscroll
slow
fast
+/-
esc
set tempo
stop
Help us to improve Ultimate-Guitar.com Take our survey!
×
Contributor
Difficulty
Tuning
dannegl 351
novice
D G C F A D
Artist: Mötley Crüe 
Album: Saints of los angeles 
Song: face down in the dirt
Tuning: D, G, C, F 
Tabbed by dannegl

Intro: 
F|----------------------------------| 
C|----------------------------------| 
G|----------3-3-3-3-5-5-5-5-7-7-7-7-| 
D|-5-5-5-5--------------------------| X8 

Main Riff: 
F|--------------------------| 
C|------------------------3-| 
G|--------------------------| 
D|-5--3-5--3-5-3-5-3-5-3----| X4 

Verse: 
F|--------------------------| 
C|------------------------3-| 
G|--------------------------| 
D|-5--3-5--3-5-3-5-3-5-3----| X4  

Pre-Chourus
F|-----------------------------| 
C|-----------------------------| 
G|-8-8-8-------7-7-7-7-7-7-7-7-| 
D|-------8-8-8-----------------| X4

Chourus: 
F|--------------------------------------------------------------------| 
C|--------------------------------------------------------------------| 
G|----------3-3-3-3-5-5-5-5-7-7-7-7-----------3-3-3-3-5-5-5-5---------|  
D|-5-5-5-5---------------------------5-5-5-5------------------3-3-3-3-| X2 

Intro: 
F|----------------------------------| 
C|----------------------------------| 
G|----------3-3-3-3-5-5-5-5-7-7-7-7-| 
D|-5-5-5-5--------------------------| X2 

Main Riff: 
F|--------------------------| 
C|------------------------3-| 
G|--------------------------| 
D|-5--3-5--3-5-3-5-3-5-3----| X2 

Verse: 
F|--------------------------| 
C|------------------------3-| 
G|--------------------------| 
D|-5--3-5--3-5-3-5-3-5-3----| X4  

Pre-Chourus
F|-----------------------------| 
C|-----------------------------| 
G|-8-8-8-------7-7-7-7-7-7-7-7-| 
D|-------8-8-8-----------------| X3 

F|----------------------------------------| 
C|----------------14-14-14-14-14-14-14-14-| 
G|-8-8-8-14-14-14-------------------------| 
D|----------------------------------------| 
  
Chourus: 
F|--------------------------------------------------------------------| 
C|--------------------------------------------------------------------| 
G|----------3-3-3-3-5-5-5-5-7-7-7-7-----------3-3-3-3-5-5-5-5---------|  
D|-5-5-5-5---------------------------5-5-5-5------------------3-3-3-3-| X4  

Intermission: 
F|---------------------------------------------| 
C|---------------------------------------------| 
G|-12-12-12-12---------------------10-10-10-10-| 
D|-------------12-12-12-12-8-8-8-8-------------| 

F|-----------------------------------------| 
C|-----------------------------------------| 
G|-12-12-12-12-------------8-8-8-8---------| 
D|-------------12-12-12-12---------8-8-8-8-| X3 

Main Riff: 
F|--------------------------| 
C|------------------------3-| 
G|--------------------------| 
D|-5--3-5--3-5-3-5-3-5-3----| X4 

Pre-Chourus
F|-----------------------------| 
C|-----------------------------| 
G|-8-8-8-------7-7-7-7-7-7-7-7-| 
D|-------8-8-8-----------------| X3 

F|----------------------------------------| 
C|----------------14-14-14-14-14-14-14-14-| 
G|-8-8-8-14-14-14-------------------------| 
D|----------------------------------------| 

Intermission 2: 
F|-------------------------------------------------------------------------| 
C|----------------------------------------12-12-12-12-12-12-12-12-12-12-12-| 
G|----------5h7-5--------------------9~------------------------------------| 
D|-5~-------------5~-----5~----7~------------------------------------------| 
 
Chourus: 
F|--------------------------------------------------------------------| 
C|--------------------------------------------------------------------| 
G|----------3-3-3-3-5-5-5-5-7-7-7-7-----------3-3-3-3-5-5-5-5---------|  
D|-5-5-5-5---------------------------5-5-5-5------------------3-3-3-3-| X4  

Main Riff: 
F|--------------------------| 
C|------------------------3-| 
G|--------------------------| 
D|-5--3-5--3-5-3-5-3-5-3----| X3

F|--------------------------| 
C|--------------------------| 
G|--------------------------| 
D|-5--3-5--3-5-3-5-3-5------|
Suggest correction new What's this?
You can suggest a correction to this tab. Community and Mods will review your correction and vote to approve or reject it.
comments
We did not receive enough feedback on this tab! Please rate:
print report bad tab
1 2 3 4 5
guest
You may want to rate the tab now too:
select rating
Please do not post tabs as comments. Select "correction" instead!