Oops, an error
Loading. Please wait.

Fake Bass Tab

985 views 3 this week
no commentswrite comment
1 2 3 4 5
please rate
add to favorites
launch autoscroll
font size
0
reset
guitar tuner
Autoscroll
slow
fast
+/-
esc
set tempo
stop
Help us to improve Ultimate-Guitar.com Take our survey!
×
Author
Mötley Crüe - Fake       BASSTAB BY kickstartt-


intro                  STRING D, G, C, F

F---------------------------------|-------------------------|
C---------------------------------|-------------------------|
G---------------------------------|-------------------------|
D--5\\----0-0---0-0---0-0---0-0-\\|/--0-0---0-0---0-0---0-0-|

"fake"  "fake"  "fake"

F----------------------------|
C----------------------------|
G------------------------5---|
D--0-0---0-0---0-0--x-x----5-|

"fake"  "fake"  "fake"

F----------------------------|
C----------------------------|
G------------------------5---|
D--0-0---0-0---0-0--x-x----5-|

verse

F----------------------------|
C----------------------------|
G------------------------5---|
D--0-0---0-0---0-0--x-x----5-|


F---------------------------|
C---------------------------|
G---------------------------|
D--0-0---0-0---0-0--x-x-5-5-|


F--------------------------|
C--------------------------|
G--------------------------|
D--/10-10-10-10-10--5-5-5--|


F-----------------------------------------|
C-----------------------------------------|
G-----------------------------------------|
D--\\0-0-----0-0------0-0------0-0--------|

verse

F----------------------------|
C----------------------------|
G------------------------5---|
D--0-0---0-0---0-0--x-x----5-|


F---------------------------|
C---------------------------|
G---------------------------|
D--0-0---0-0---0-0--x-x-5-5-|


F--------------------------|
C--------------------------|
G--------------------------|
D--/10-10-10-10-10--5-5-5--|

chorus

F-----------------------------------------------------------|
C-----------------------------------------------------------|
G-------------------------------0-3-0--5-5-5------3333-5555-|
D--\\0-0--0-3-0--5-5-5--3---------------------5-------------|


F-----------------------------------------------------------------|
C-----------------------------------------------------------------|
G-----------------------------0-3-0--5-5-5-----3333--5555-5-------|
C--0-0--0-3-0--5-5-5--3---------------------5----------------5--0-|


F---------------------------------------|
C---------------------------------------|
G---------------------------------------|
D--0-0-----0-0------0-0------0-0--------|

verse

F----------------------------|
C----------------------------|
G------------------------5---|
D--0-0---0-0---0-0--x-x----5-|


F---------------------------|
C---------------------------|
G---------------------------|
D--0-0---0-0---0-0--x-x-5-5-|


F--------------------------|
C--------------------------|
G--------------------------|
D--/10-10-10-10-10--5-5-5--|

chorus

F-----------------------------------------------------------|
C-----------------------------------------------------------|
G--------------------------0-0--0-3-0--5-5-5------3333-5555-|
D--\\0-0--0-3-0--5-5-5--3---------------------5-------------|

F-----------------------------------------------------------------|
C-----------------------------------------------------------------|
G------------------------0-0--0-3-0--5-5-5-----3333--5555-5-------|
D--0-0--0-3-0--5-5-5--3---------------------5----------------5--0-|


F-------------------------------------0-|
C---------------------------------------|
G---------------------------------------|
D--0-0-----0-0------0-0------0-0--------|

verse

F----------------------------|
C----------------------------|
G------------------------5---|
D--0-0---0-0---0-0--x-x----5-|


F---------------------------|
C---------------------------|
G---------------------------|
D--0-0---0-0---0-0--x-x-5-5-|


F--------------------------|
C--------------------------|
G--------------------------|
D--/10-10-10-10-10--5-5-5--|

chorus

F-----------------------------------------------------------|
C-----------------------------------------------------------|
G--------------------------0-0--0-3-0--5-5-5------3333-5555-|
D--\\0-0--0-3-0--5-5-5--3---------------------5-------------|


F-------------------------------------------------------------------|
C-------------------------------------------------------------------|
G------------------------0-0--0-3-0--5-5-5-----3333--5555--55-------|
D--0-0--0-3-0--5-5-5--3---------------------5------------------3--0-|




Bridge

F-------------------------------------------------------------------|
C-------------------------------------------------------------------|
G-------------------------------------------------------------------|
D--10-10-10-10-10-10-10-10\-555555555555-0--------------------------|

Solo

F-------------------------------------------------------------------|
C-------------------------------------------------------------------|
G-------------------------------------------------------------------|
D--00--00--55--55--00--00--55--55--00--00--55--55--00---00--55-55-0~|


chorus out-
Suggest correction
Give kudos to tab author, rate the tab!
1 2 3 4 5
comments
print report bad tab
guest
You may want to rate the tab now too:
select rating
Please do not post tabs as comments. Select "correction" instead!