Oops, an error
Loading. Please wait.

Knock Em Dead Kid Bass Tab

version 1
version 1

Whole song

Interactive

4,644 views 9 this week
3 commentsread comments
1 2 3 4 5
excellent!
x 3
add to favorites
launch autoscroll
font size
0
reset
guitar tuner
Autoscroll
slow
fast
+/-
esc
set tempo
stop
Help us to improve Ultimate-Guitar.com Take our survey!
×
Author
Difficulty
intermediate
Artist:Motley Crue
Song:Knock 'Em Dead Kid
Album:Shout At The Devil
Bassist:Nikki Sixx
Tabber:Dev Fuld

I had a request for this song. This is an excellent Crue classic. This tab 
is correct

Key:
* = let it ring
x = times a number

*Guitar Intro*

Intro
G:------------------|-------------------|
D:------------------|-------------------|
A:------------------|-------------------|
D:55*-7*-8*-5*/17-17|5x16-7x16-8x16-5x16|

Verse
G:----------------------|----------------------|
D:----------------------|----------------------|
A:----------1-----------|----------1-----------|
D:5x32-3x12---3-5x12-8-7|5x32-3x12---3-5x12-8-7|

Chorus
G:-------------------|-------------------|
D:-------------------|-------------------|
A:-------------------|-------------------|
D:5x16-7x16-8x16-5x16|5x16-7x16-8x16-5x16|

Verse

Chorus

Solo
G:------|------|--------------------------|------|------|--------------------------|
D:------|------|--------------------------|------|------|--------------------------|
A:1x13-4|1x13-4|--------------------------|1x13-4|1x13-4|--------------------------|
D:------|------|5x5-3--5x5-8--5x5-3--5x5-8|------|------|5x5-3--5x5-8--5x5-3--5x5-8|

G:--------|
D:--------|
A:3x16-5x9|
D:--------|

Chorus

End
G:-----------|---|
D:-----------|---|
A:---------8*|---|
D:5--5--5----|8-5|

That's it. Totally rockin tune. I already put it in order, and remember to 
play it with attitude. Any questions or comments, e-mail me at rocklvson@yahoo.com
Suggest correction
Give kudos to tab author, rate the tab!
1 2 3 4 5
comments
print report bad tab
3 comments total.
+1 reply
x_Motley-Crue_x 10 wrote on January 6 2009, 12:53 pm

Thank you very much for this tab! It is perfect, absolutley no mistakes whatsoever! Bravo! :D

+1 reply
mjuna 10 wrote on February 9 2009, 08:30 am

It's a correct tab, but why can't you just play it with standard tuning, going 2 frets down the neck on each of those you've put in D??? I'll give it 5 stars anyway, thx :)

0 reply
dirtsuicide 10 wrote on June 24 2015, 10:05 am

mjuna...you could very well do that, but your timber will be wrong and it will be too bright....

guest
You may want to rate the tab now too:
select rating
Please do not post tabs as comments. Select "correction" instead!