Oops, an error
Loading. Please wait.

Live Wire Tab

version 2
version 2

Whole song

Interactive

6,775 views 3 this week
1 commentread comment
1 2 3 4 5
x 5
add to favorites
launch autoscroll
font size
0
reset
how to read this tab
guitar tuner
Autoscroll
slow
fast
+/-
esc
set tempo
stop
Help us to improve Ultimate-Guitar.com Take our survey!
×
Author
Tuning
D G C F A D
                                    LIVE WIRE
                           As recorded by Motley Crue

Transcribed by andrew88
ridethelightning3@hotmail.com

Note: This was originally submitted 4 years ago, but I recently decided to
update it, as some parts were not quite right.

Gtr I (D G C F A D)
Gtr II (D G C F A D)

Intro

  Gtr I
     PM......|     PM......|          PM......|      PM
|------------------------------|-------------------------------|
|------------------------------|-------------------------------|
|-5------------5-------------5-|-(5)-------------5-5----7-7----|
|-5------------5-------------5-|-(5)-------------5-5----7-7----|
|----0-0-0-0-0-----0-0-0-0-0---|------0-0-0-0-0-------0--------|
|------------------------------|-------------------------------|


     PM......|     PM......|          PM........|
|------------------------------|-------------------------------------------------|
|------------------------------|------------------------------------------<5>----|
|-5------------5-------------5-|-(5)------------------<5>------------------------|
|-5------------5-------------5-|-(5)--------------<5>-----<5>-----<5>-<5>--------|
|----0-0-0-0-0-----0-0-0-0-0---|------0-0-0-0-0-0-------------<5>----------------|
|------------------------------|-------------------------------------------------|


     PM......|     PM......|          PM......|      PM
|------------------------------|-------------------------------|
|------------------------------|-------------------------------|
|-5------------5-------------5-|-(5)-------------5-5----7-7----|
|-5------------5-------------5-|-(5)-------------5-5----7-7----|
|----0-0-0-0-0-----0-0-0-0-0---|------0-0-0-0-0-------0--------|
|------------------------------|-------------------------------|


     PM......|     PM......|          PM..|
|------------------------------|-----------------------------------|
|------------------------------|-----------------------------------|
|-5------------5-------------5-|-(5)--------7b9---5----------------|
|-5------------5-------------5-|-(5)----------------7-5------------|
|----0-0-0-0-0-----0-0-0-0-0---|------0-0-0-------------7-5-3-0----|
|------------------------------|-----------------------------------|


Verse
       PM......|     PM......|          PM......|             2x
||-------------------------------|----------------------------||
||o------------------------------|---------------------------o||
||--5------------5-------------5-|-(5)-------------7--x-7-----||
||--5------------5-------------5-|-(5)-------------7--x-7-----||
||o----0-0-0-0-0-----0-0-0-0-0---|------0-0-0-0-0------------o||
||-------------------------------|----------------------------||


     PM......|     PM......|          PM......|
|------------------------------|------------------------------|
|------------------------------|------------------------------|
|-5------------5-------------5-|-(5)-------------7--7-7--9----|
|-5------------5-------------5-|-(5)-------------7--7-7--9----|
|----0-0-0-0-0-----0-0-0-0-0---|------0-0-0-0-0----------7----|
|------------------------------|------------------------------|


Pre-Chorus
|-------------------------|----------------------------|
|-------------------------|----------------------------|
|-10----------------------|-12-------------------------|
|-10----------------------|-12-------------------------|
|--8--------7h8p7-----7---|-10--------9h10p9-----9-0---|
|-----------------10----8-|------------------10--------|


|------|
|------|
|-2----|
|-2----|
|-0----|
|------|


Chorus
    PM|       PM|         PM........|       PM|         PM..|
                                                                4x
||------------------------------|-------------------------------||
||o-----------------------------|------------------------------o||
||------5--7------5-5--7--------|-----5--7------5-5--7----------||
||------7--9------7-7--9--------|-----7--9------7-7--9----------||
||o-0-0-------0-0---------0-0-0-|-0-0-------0-0---------0-0-0--o||
||------------------------------|-------------------------------||


Then play intro, verse, pre-chorus and chorus again.


Interlude
                                                                  3x
||------------------------------------|---------------------------||
||o-----------------------------------|--------------------------o||
||------------------------------------|---------------------------||
||--10--------------12----------------|-10-----------------12-----||
||o-12--------------10----------------|--8-----------------10----o||
||------------------------------------|---------------------------||


Then play Chorus again.


Outro
  Gtr I
|---------------------------|------------------------------|
|---------------------------|------------------------------|
|---------------------------|------------------------------|
|---------------------------|------------------------------|
|-3--2--0--2-3--2--3s5--3-2-|--3--2--0--2-3--2--3s5--3-2---|
|---------------------------|------------------------------|
|
| Gtr II
|---------------------------|------------------------------|
|---------------------------|------------------------------|
|---------------------------|------------------------------|
|-10------------------------|-12---------------------------|
|-12------------------------|-10---------------------------|
|---------------------------|------------------------------|


|----------------------------|------------------------------|
|----------------------------|------------------------------|
|----------------------------|------------------------------|
|----------------------------|------------------------------|
|--3--2--0--2-3--2--3s5--3-2-|--3--2--0--2-3--2--3s5--3-2---|
|----------------------------|------------------------------|
|
|----------------------------|------------------------------|
|----------------------------|------------------------------|
|----------------------------|------------------------------|
|-10-------------------------|-12---------------------------|
|--8-------------------------|-10---------------------------|
|----------------------------|------------------------------|


     PM......|     PM......|          PM......|      PM          3x
||-------------------------------|-------------------------------||
||o------------------------------|------------------------------o||
||--5------------5-------------5-|-(5)-------------5-5----7------||
||--5------------5-------------5-|-(5)-------------5-5----7------||
||o----0-0-0-0-0-----0-0-0-0-0---|------0-0-0-0-0---------------o||
||-------------------------------|-------------------------------||

     PM......|     PM......|          PM......|      PM
|------------------------------|---------------------------------|
|------------------------------|---------------------------------|
|-5------------5-------------5-|-(5)-----------------------------|
|-5------------5-------------5-|-(5)-----------------------------|
|----0-0-0-0-0-----0-0-0-0-0---|------0-0-0-0-0-------0-2-3-2----|
|------------------------------|------------------3b5---------3--|

|-------------|
|-------------|
|-2--2--------|
|-2--2--------|
|-0--0--------|
|-------------|


Tablature Legend
----------------
 h   - hammer-on
 p   - pull-off
 b   - bend
 pb  - pre-bend
 r   - bend release (if no number after the r, then release immediately)
 /\  - slide into or out of (from/to "nowhere")
 s   - legato slide
 S   - shift slide
  - natural harmonic
[n]  - artificial harmonic
n(n) - tapped harmonic
 ~   - vibrato
 tr  - trill
 T   - tap
 TP  - trem. picking
 PM  - palm muting
\n/  - tremolo bar dip; n = amount to dip
 \n  - tremolo bar down
 n/  - tremolo bar up
/n\  - tremolo bar inverted dip
 =   - hold bend; also acts as connecting device for hammers/pulls
 <>  - volume swell (louder/softer)
 x   - on rhythm slash represents muted slash
 o   - on rhythm slash represents single note slash

Misc Legend
-----------
 |  - bar
||  - double bar
||o - repeat start
o|| - repeat end
*|  - double bar (ending)
 :  - bar (freetime)
 $  - Segno
 &  - Coda
Tempo markers -  = BPM(8/16=s8/s16), where s8 = swing 8ths, s16 = swing 16ths
Suggest correction
comments
print report bad tab
1 comment total.
0 reply
Ratt n' Roll 205 May 26, 2009 04:38 PM

Nice Tab, 5 Stars

guest
You may want to rate the tab now too:
select rating
Wanna post a correction for this tab? Suggest correction