Oops, an error
Loading. Please wait.

Live Wire Tab

version 3
version 3

Whole song

Interactive

5,974 views 3 this week
4 commentsread comments
1 2 3 4 5
accurate
x 6
add to favorites
launch autoscroll
font size
0
reset
how to read this tab
guitar tuner
Autoscroll
slow
fast
+/-
esc
set tempo
stop
Help us to improve Ultimate-Guitar.com Take our survey!
×
Contributor
Difficulty
ACDCroolz 116
intermediate
Hey guys....I posted idiotic comments on one of the tabs a long time ago and then
corrected them thinking that they were from someone else....anyway I am tabbing this
for......huh?.....I forget why I wanted to to submit a tab......OH yeah! Ok, I am
writing this for the people who want to play with the recording but dont want to
tune down a full step.....ok here it is:

Intro:
I hold the 3 on the E string with my thumb so I can work with my other fingers more.
Whatever way is best for you.
Guitar One:
E|----------------------------------------------------|
B|----------------------------------------------------|
G|-3-------------3-------------3-------------3-3--5-5-|
D|-3-------------3-------------3-------------3-3--5-5-|
A|----------------------------------------------------|
E|---3-3-3-3-3-3---3-3-3-3-3-3---3-3-3-3-3-3----------|
Guitar Two:
E|----------------------------------------------------|
B|----------------------------------------------------|
G|-------------------------------------------3-3--5-5-|
D|-------------------------------------------3-3--5-5-|
A|-------------------------------------------1-1--3-3-|
E|----------------------------------------------------|
                                       (Harmonics)
E|----------------------------------------------------|
B|------------------------------------------------(3)-|
G|-3-------------3-------------3----------------(3)---|
D|-3-------------3-------------3------------(3)-------|
A|-------------------------------------(3)(3)-(3)-----|
E|---3-3-3-3-3-3---3-3-3-3-3-3---3-3-3----------------|
Drums Come in and bass comes in...
Guitar One:
E|----------------------------------------------------|
B|----------------------------------------------------|
G|-3-------------3-------------3-------------3-3--5-5-|
D|-3-------------3-------------3-------------3-3--5-5-|
A|----------------------------------------------------|
E|---3-3-3-3-3-3---3-3-3-3-3-3---3-3-3-3-3-3----------|
Guitar Two:
E|----------------------------------------------------|
B|----------------------------------------------------|
G|-3-------------3-------------3-------------3-3--5-5-|
D|-3-------------3-------------3-------------3-3--5-5-|
A|----------------------------------------------------|
E|---3-3-3-3-3-3---3-3-3-3-3-3---3-3-3-3-3-3----------|
Guitar One:
E|----------------------------------------------------|
B|----------------------------------------------------|
G|-3-------------3-------------3------5b-3------------|
D|-3-------------3-------------3-----------5-3--------|
A|---------------------------------------------5-3----|
E|---3-3-3-3-3-3---3-3-3-3-3-3---3-3-3-------------6-3|
Guitar Two:
E|----------------------------------------------------|
B|----------------------------------------------------|
G|-3-------------3-------------3-------------3-3--5-5-|
D|-3-------------3-------------3-------------3-3--5-5-|
A|----------------------------------------------------|
E|---3-3-3-3-3-3---3-3-3-3-3-3---3-3-3-3-3-3----------|

Verse:

Guitar One And Two: (x3)
E|----------------------------------------------------|
B|----------------------------------------------------|
G|-3-------------3-------------3-------------5--5-----|
D|-3-------------3-------------3-------------5--5-----|
A|----------------------------------------------------|
E|---3-3-3-3-3-3---3-3-3-3-3-3---3-3-3-3-3-3----------|

Pre Chorus:
Guitar One:
E|----------------------------------------------------|
B|----------------------------------------------------|
G|-8------------------------10------------------------|
D|-8------------------------10----------------------5-|
A|-6--------5h6p5----5------8--------7h8p7------7---5-|
E|-----------------8-----6-------------------8------3-|
Guitar Two:
E|----------------------------------------------------|
B|----------------------------------------------------|
G|-8------------------------10------------------------|
D|-8------------------------10----------------------5-|
A|-6------------------------8-----------------------5-|
E|--------------------------------------------------3-|

Chorus:Once again I use my thumb for the 3 on the E string
Guitar One And Two: (x2)
E|----------------------------------------------------|
B|----------------------------------------------------|
G|--------3-5------3--5-------3-5------3--5-----------|
D|--------5-7------5--7-------5-7------5--7-----------|
A|----------------------------------------------------|
E|--3-3-3-----3-3-------3-3-3-----3-3-----------------|

Pre Verse:
Guitar One:
E|----------------------------------------------------|
B|----------------------------------------------------|
G|-3-------------3-------------3-------------3-3--5-5-|
D|-3-------------3-------------3-------------3-3--5-5-|
A|----------------------------------------------------|
E|---3-3-3-3-3-3---3-3-3-3-3-3---3-3-3-3-3-3----------|
Guitar Two:
E|----------------------------------------------------|
B|----------------------------------------------------|
G|-------------------------------------------3-3--5-5-|
D|-------------------------------------------3-3--5-5-|
A|-------------------------------------------1-1--3-3-|
E|----------------------------------------------------|
Guitar One:
E|----------------------------------------------------|
B|----------------------------------------------------|
G|-3-------------3-------------3------5b-3------------|
D|-3-------------3-------------3-----------5-3--------|
A|---------------------------------------------5-3----|
E|---3-3-3-3-3-3---3-3-3-3-3-3---3-3-3-------------6-3|
Guitar One And Two:
E|----------------------------------------------------|
B|----------------------------------------------------|
G|-3-------------3-------------3-------------3-3--5-5-|
D|-3-------------3-------------3-------------3-3--5-5-|
A|----------------------------------------------------|
E|---3-3-3-3-3-3---3-3-3-3-3-3---3-3-3-3-3-3----------|
Guitar One:
E|----------------------------------------------------|
B|----------------------------------------------------|
G|-3-------------3-------------3------5b-3------------|
D|-3-------------3-------------3-----------5-3--------|
A|---------------------------------------------5-3----|
E|---3-3-3-3-3-3---3-3-3-3-3-3---3-3-3-------------6-3|
Guitar Two:
E|----------------------------------------------------|
B|----------------------------------------------------|
G|-3-------------3-------------3-------------3-3--5-5-|
D|-3-------------3-------------3-------------3-3--5-5-|
A|----------------------------------------------------|
E|---3-3-3-3-3-3---3-3-3-3-3-3---3-3-3-3-3-3----------|

Verse:

Guitar One And Two: (x3)
E|----------------------------------------------------|
B|----------------------------------------------------|
G|-3-------------3-------------3-------------5--5-----|
D|-3-------------3-------------3-------------5--5-----|
A|----------------------------------------------------|
E|---3-3-3-3-3-3---3-3-3-3-3-3---3-3-3-3-3-3----------|

Pre Chorus:
Guitar One:
E|----------------------------------------------------|
B|----------------------------------------------------|
G|-8------------------------10------------------------|
D|-8------------------------10----------------------5-|
A|-6--------5h6p5----5------8--------7h8p7------7---5-|
E|-----------------8-----6-------------------8------3-|
Guitar Two:
E|----------------------------------------------------|
B|----------------------------------------------------|
G|-8------------------------10------------------------|
D|-8------------------------10----------------------5-|
A|-6------------------------8-----------------------5-|
E|--------------------------------------------------3-|

Chorus:Once again I use my thumb for the 3 on the E string
Guitar One And Two: (x2)
E|----------------------------------------------------|
B|----------------------------------------------------|
G|--------3-5------3--5-------3-5------3--5-----------|
D|--------5-7------5--7-------5-7------5--7-----------|
A|----------------------------------------------------|
E|--3-3-3-----3-3-------3-3-3-----3-3-----------------|

Bridge:
Guitar One: (x3)
E|----------------------------------------------------|
B|--3------------------------1------------------------|
G|--3------------------------2------------------------|
D|--5------------------------3------------------------|
A|--5------------------------3------------------------|
E|----------------------------------------------------|

E|----------------------------------------------------|
B|---------------------------1------------------------|
G|--8------------------------2------------------------|
D|--8------------------------3------------------------|
A|--6------------------------3------------------------|
E|--6-------------------------------------------------|
Guitar Two: (x3)
E|----------------------------------------------------|
B|----------------------------------------------------|
G|--12-----------------------10-----------------------|
D|--12-----------------------10-----------------------|
A|--10-----------------------8------------------------|
E|--10-----------------------8------------------------|

E|----------------------------------------------------|
B|----------------------------------------------------|
G|---8-----------------------10-----------------------|
D|---8-----------------------10-----------------------|
A|---6-----------------------8------------------------|
E|---6-----------------------8------------------------|

Chorus:Once again I use my thumb for the 3 on the E string
Guitar One And Two: (x4)
E|----------------------------------------------------|
B|----------------------------------------------------|
G|--------3-5------3--5-------3-5------3--5-----------|
D|--------5-7------5--7-------5-7------5--7-----------|
A|----------------------------------------------------|
E|--3-3-3-----3-3-------3-3-3-----3-3-----------------|
Guitar One: (x8)
E|----------------------------------------------------|
B|----------------------------------------------------|
G|----------------------------------------------------|
D|----------------------------------------------------|
A|--1-0-----0-1-0-3-3---1-0-----0-1-0-3-3-------------|
E|------3-------------------3-------------------------|
Guitar Two: (x4)
E|----------------------------------------------------|
B|----------------------------------------------------|
G|--------3-5------3--5-------3-5------3--5-----------|
D|--------5-7------5--7-------5-7------5--7-----------|
A|----------------------------------------------------|
E|--3-3-3-----3-3-------3-3-3-----3-3-----------------|

Conclusion:
Guitar One And Two: (x3)
E|----------------------------------------------------|
B|----------------------------------------------------|
G|-3-------------3-------------3-------------3-3--5---|
D|-3-------------3-------------3-------------3-3--5---|
A|----------------------------------------------------|
E|---3-3-3-3-3-3---3-3-3-3-3-3---3-3-3-3-3-3----------|

Final Bar:
E|---------------------------------------------------------------|
B|---------------------------------------------------------------|
G|-3-------------3-------------3-------------5-3-----------------|
D|-3-------------3-------------3-----------------5-3--------5-5--|
A|---------------------------------------------------5-3----5-3--|
E|---3-3-3-3-3-3---3-3-3-3-3-3---3-3-3-3-3-3-------------6--3-3--|

Thats it! It is my favourite song by Motley Crue! I hope you enjoyed the conveneince of
keeping your guitar in standard tuning! Have any questions or comments send an email to
dillonowens@hotmail.com.
comments
print report bad tab
4 comments total. Showing first comments.
0 reply
ACDCroolz 116 wrote on March 11 2006, 08:58 am

I am so glad that my tab was submitted! I know this will help out the lazy asses that dont want to tune down a full step. Hope it is helpfull and rate it, and post comments!

0 reply
simmons100 218 wrote on October 22 2006, 09:08 pm

simmons100:
good

0 reply
JSJ11 12 wrote on December 20 2006, 03:58 pm

Thanks this tab is relly good for a normal tabbers who don't want to tune down their guitar. Great Tab!!!

I want to post or [tab]
guest
You may want to rate the tab now too:
select rating
Please do not post tabs as comments. Select "correction" instead!