Oops, an error
Loading. Please wait.

Live Wire Bass Tab

version 4
version 4

Whole song

Interactive

10,447 views 9 this week
4 commentsread comments
1 2 3 4 5
accurate
x 5
add to favorites
launch autoscroll
font size
0
reset
guitar tuner
Tab Pro tools
  • play this tab
  • loop segment
  • change instrument
  • show fretboard
  • metronome
×
Best way to learn
"Live Wire"
Autoscroll
slow
fast
+/-
esc
set tempo
stop
Difficulty
intermediate
note by note!
So Good!

Motley Crue, Live Wire (Bass Tab)

Intro part 1 (only mick mars)
(x1)
G|------------------------------------------------------------------|
D|------------------------------------------------------------------|
A|----------------------------------------------1-1-3-3-------------|
E|-x-x-x-x-x-x-x--x-x-x-x-x-x-x--x-x-x-x-x-x-x----------------------|

Intro Part 1 (no Bass)

intro part2 (x2)
G|------------------------------------------------------------------|
D|------------------------------------------------------------------|
A|----------------------------------------------1-1-3-3-------------|
E|-1-3-3-3-3-3-3--1-3-3-3-3-3-3--1-3-3-3-3-3-3----------------------|


Verse (x3)
G|------------------------------------------------------------------|
D|------------------------------------------------------------------|
A|------------------------------------------------------------------|
E|-1-3-3-3-3-3-3--1-3-3-3-3-3-3--1-3-3-3-3-3-3--1-3-3--1-3-3--------|

End of verse (x1)
G|----8-----------10------------------------------------------------|
D|------8-----------10----------------------------------------------|
A|-6------6-----8------8-10-----------------------------------------|
E|------------------------------------------------------------------|

Pause:

chorus(x3) -00:38-
G|------------------------------------------------------------------|
D|------------------------------------------------------------------|
A|-----------5---------------3----6-6-6-6-6-6--6---------------3----|
E|3-3-3-3-3-3--3--1-1-1-1-1-1--1-------------6----1-1-1-1-1-1-1--1--|

Intro part 1 (only mick mars)                                
(x1)                                                         -00:56-
G|------------------------------------------------------------------|
D|------------------------------------------------------------------|
A|----------------------------------------------1-1--3--------------|
E|-x-x-x-x-x-x-x--x-x-x-x-x-x-x--x-x-x-x-x-x-x----------------------|

Intro part 1
(x1)
G|------------------------------------------------------------------|
D|------------------------------------------------------------------|
A|------------------------------------------------------------------|
E|-3-3-3-3-3--3-3-1-3-1-3-1-1-0-------------------------------------|


intro part2 (x2)
G|------------------------------------------------------------------|
D|------------------------------------------------------------------|
A|----------------------------------------------1-1-3-3-------------|
E|-1-3-3-3-3-3-3--1-3-3-3-3-3-3--1-3-3-3-3-3-3----------------------|

Verse (x3)                                                   -01:13-
G|------------------------------------------------------------------|
D|------------------------------------------------------------------|
A|------------------------------------------------------------------|
E|-1-3-3-3-3-3-3--1-3-3-3-3-3-3--1-3-3-3-3-3-3--1-3-3--1-3-3--------|

End of verse (x1)
G|----8-----------10------------------------------------------------|
D|------8-----------10----------------------------------------------|
A|-6------6-----8------8-10-----------------------------------------|
E|------------------------------------------------------------------|

Pause:

                                                              
chorus(x2)                                                   -01:34-
G|------------------------------------------------------------------|
D|------------------------------------------------------------------|
A|-----------5---------------3----6-6-6-6-6-6--6---------------3----|
E|3-3-3-3-3-3--3--1-1-1-1-1-1--1-------------6----1-1-1-1-1-1-1--1--|


Bridge( part1/1)                                             -01:52-
G|------------------------------------------------------------------|
D|----------------8--------------------8-10-------------------------|
A|-8-10-10-10-(x3)-10---8-10-10-10-(x3)-----------------------------|
E|------------------------------------------------------------------|

Bridge( part1/2)                                             -01:55-
G|------------------------------------------------------------------|
D|----------------8-------------------------------------------------|
A|-8-10-10-10-(x3)-10---8-10-10-10-(x2)--10-8----8------------------|
E|--------------------------------------------10---10-8-6-8---------|

Part 2 (x1)
G|------------------------------------------------------------------|
D|---------------------------------------------------------------335|
A|----------------*---------------*---------------*------------>3---|
E|3-3-3-3-3-3-3-3-3-3-3-3-3-3-3-3-3-3-3-3-3-3-3-3-3-3-3-3-3-3-3-----|

G|------------------------------------------------------------------|
D|------------------------------------------------------------------|
A|----------------*---------------*---------------*-----------------|
E|3-3-3-3-3-3-3-3-3-3-3-3-3-3-3-3-3-3-3-3-3-3-3-3-3->15-15-15-15-15-|

                                                                  
chorus(x2)                                                   -02:18-
G|------------------------------------------------------------------|
D|-----------------12----------10---------8---------10--------------|
A|10-10-10-10-10-10--10--888888--8--666666-6--888888--8-------------|
E|------------------------------------------------------------------|
                                                             
chorus(x2)                                                   -02:36-
G|------------------------------------------------------------------|
D|------------------------------------------------------------------|
A|10-10-10-10-10-10-10-10--8888-8888--6666-6666--8888-8888----------|
E|------------------------------------------------------------------|

Pause:

Intro                                 
(x1 - pause 3/4) (x1 - pause 3/4) (x1 - pause 3/4)           -02:54-
G|------------------------------------------------------------------|
D|------------------------------------------------------------------|
A|----------------------------------------------1-1--3--------------|
E|-x-x-x-x-x-x-x--x-x-x-x-x-x-x--x-x-x-x-x-x-x----------------------|

Intro                                 
(x1)
G|-------------------------------------------------------3-2---0----|
D|-----------------------------------------------3-2-0-2-----3------|
A|------------------------------------------------------------------|
E|-x-x-x-x-x-x-x--x-x-x-x-x-x-x--x-x-x-x-x-x-x----------------------|

comments
print report bad tab
4 comments total. Showing first comments.
0 reply
Basisti wrote on January 22 2008, 09:50 am

good tab except the chorus is wrong

0 reply
x_Motley-Crue_x wrote on December 30 2008, 08:38 pm

Good tab, thnx very much! :D

0 reply
WASP_God wrote on May 1 2009, 05:52 am

awesome tab mate, the timing above each section helped speed up the learning process loads

5 star dude

I want to post or [tab]
guest
You may want to rate the tab now too:
select rating
Please do not post tabs as comments. Select "correction" instead!