Oops, an error
Loading. Please wait.

Live Wire Tab

version 4
version 4

Whole song

Interactive

425 views 1 this week
no commentswrite comment
1 2 3 4 5
please rate
add to favorites
launch autoscroll
font size
0
reset
how to read this tab
guitar tuner
Tab Pro tools
  • play this tab
  • loop segment
  • change instrument
  • show fretboard
  • metronome
×
Best way to learn
"Live Wire"
Autoscroll
slow
fast
+/-
esc
set tempo
stop
Contributor
Difficulty
intermediate
LIVEWIRE WITH THE DROPPING ONLY THE E STRING BECAUSE DROPPING ALL THE SRINGS IS A BIT OF 
A HASSLE


Intro
E|---------------------------------------------|
B|---------------------------------------------|
G|-3-----------3-----------3-----------3-3-5-5-|
D|-3-----------3-----------3-----------3-3-5-5-|   2x
A|---------------------------------------------|
D|---5-5-5-5-5---5-5-5-5-5---5-5-5-5-5---------|
   pm~~~~~~~~~ pm~~~~~~~~~ pm~~~~~~~~~


E|---------------------------------------------|
B|---------------------------------------------|
G|-3-----------3-----------3-----------3-335x5-|
D|-3-----------3-----------3-----------3-335x5-|
A|---------------------------------------------|
D|---5-5-5-5-5---5-5-5-5-5---5-5-5-5-5---------|
   pm~~~~~~~~~ pm~~~~~~~~~ pm~~~~~~~~~


E|--------------------------------------------------------------------|
B|-----------------------------------------------------------------(5)|
G|-3-----------3-----------3------------------------------ (5)-(5)----|
D|-3-----------3-----------3----------------------(5)-----------------|
A|----------------------------------------(5)-(5)------(5)------------|
D|---5-5-5-5-5---5-5-5-5-5---5-5-5-5-5--------------------------------|
   pm~~~~~~~~~ pm~~~~~~~~~ pm~~~~~~~~~


E|---------------------------------------------|
B|---------------------------------------------|
G|-3-----------3-----------3-----------3-335x5-|
D|-3-----------3-----------3-----------3-335x5-|
A|---------------------------------------------|
D|---5-5-5-5-5---5-5-5-5-5---5-5-5-5-5---------|
   pm~~~~~~~~~ pm~~~~~~~~~ pm~~~~~~~~~

E|------------------------------------------------------------|
B|------------------------------------------------------------|
G|-3-----------3-----------3-----------5(fB)---5-3------------|
D|-3-----------3-----------3-----------------------5-3--------|
A|-----------------------------------------------------5-3-1--|
D|---5-5-5-5-5---5-5-5-5-5---5-5-5-5-5------------------------|
   pm~~~~~~~~~ pm~~~~~~~~~ pm~~~~~~~~


E|---------------------------------------------|
B|---------------------------------------------|
G|-3-----------3-----------3-----------3-335x5-|
D|-3-----------3-----------3-----------3-335x5-|
A|---------------------------------------------|
D|---5-5-5-5-5---5-5-5-5-5---5-5-5-5-5---------|
   pm~~~~~~~~~ pm~~~~~~~~~ pm~~~~~~~~~


Bridge
E|---------------------|--------------------|
B|---------------------|--------------------|
G|-8-------------------|-10-----------------|
D|-8-------------------|-10-----------------| (PAUSE FOR VOCAL BREAK)
A|-6----5-6-5---6-5----|-8-----7-8-7----8-7-|
D|------------8-----8--|-------------10-----|


CHORUS

  Gm
E|-----------------------|
B|-----------------------|
G|------(3)(5)----(3)X(5)|
D|-------5--7------5-X-7-|
A|-----------------------|
D|-5-5-5-------5-5-------|
  Eb
E|-----------------------|
B|-----------------------|
G|------(3)(5)----(3)X(5)|
D|-------5--7------5-X-7-|
A|-----------------------|
D|-5-5-5-------5-5-------|

 Eb
E|-----------------------|
B|-----------------------|
G|------(3)(5)----(3)X(5)|
D|-------5--7------5-X-7-|
A|-----------------------| (I PREFER THE NOTES IN PARENTHESIS
D|-5-5-5-------5-5-------|   BE PLAYED BY GUITAR 2)

  F
E|-----------------------|
B|-----------------------|
G|------(3)(5)----(3)X(5)|
D|-------5--7------5-X-7-|
A|-----------------------|
D|-5-5-5-------5-5-------| ....CHORUS IS PLAYED TWICE THEN GOES BACK TO THE
                               INTRO




INTERLUDE
E|---------|---------|----------|---------|
B|-5-------|-1-------|-10-------|-1-------|
G|-5-------|-2-------|-10-------|-2-------|
D|-3-------|-3-------|-10-------|-3-------| BACK TO THE CHORUS THEN TO THIS
A|-3-------|-3-------|-8--------|-3-------| NEXT PART
D|---------|---------|----------|---------|


BREAKDOWN
E|----------------------|
B|----------------------|
G|----------------------|
D|----------------------|
A|----------------------|
D|-8-7-5-7-8-7-8-10-8-7-|


THEN BACK TO THE INTRO, WITH SPACES IN BETWEEN AND YOUR DONE!!! ENJOY, YOU NOW KNOW HOW 
I PLAY LIVE WIRE
comments
We did not receive enough feedback on this tab! Please rate:
print report bad tab
1 2 3 4 5
I want to post or [tab]
guest
You may want to rate the tab now too:
select rating
Please do not post tabs as comments. Select "correction" instead!