Oops, an error
Loading. Please wait.

Looks That Kill Bass Tab

version 2
version 2
13,627 views 15 this week
2 commentsread comments
1 2 3 4 5
please rate
add to favorites
launch autoscroll
font size
0
reset
guitar tuner
Autoscroll
slow
fast
+/-
esc
set tempo
stop
Help us to improve Ultimate-Guitar.com Take our survey!
×
Author
Verse
G----------------------------------------------------|
D----------------------------------------------------|
A----------------------------------------------------|
E--------333--333-333--33-01-333-333-333-33-01-333---|

Intro to chorus (“you might not make it back)

G----------------------------------------------------------------------|
D----------------------------------------------------------------------|
A---6--6--6--6--6-6--6-6---66--66---5------5--6-----6--7----6--8-------|
E--------------------------------------3---------3--------3---------3--|

Chorus
G------------------------------------------------|
D------------------------------------------------|
A------------------------------------------------|
E--------333--333-111--11-01-333-333-111-11-01---|

Bridge part
G------------3--------------------------------------------------------|
D---5--4--3----3------3--2--1-----5-3----------------3----------------|
A---------------------------------------------6-5--3---5--------------|
E----------------------------------------------------------3----------|


There's a lot of different versions out there.  I grabbed from a few and improvised.
Suggest correction
Give kudos to tab author, rate the tab!
1 2 3 4 5
comments
print report bad tab
2 comments total.
+1 reply
co5gtr 10 wrote on March 16 2011, 12:21 am

Actually the song is tuned down a full step. So, it's not G, but A.

+1 reply
kellynickels 3,013 wrote on January 25 2015, 07:07 am

didn't like this contribution

guest
You may want to rate the tab now too:
select rating
Please do not post tabs as comments. Select "correction" instead!