Oops, an error
Loading. Please wait.

Looks That Kill Tab

version 2
version 2
18,084 views 9 this week
15 commentsread comments
1 2 3 4 5
x 12
add to favorites
launch autoscroll
font size
0
reset
how to read this tab
guitar tuner
Autoscroll
slow
fast
+/-
esc
set tempo
stop
Help us to improve Ultimate-Guitar.com Take our survey!
×
Author
-------------------------------------------------------------------------------
                        "Looks That Kill" --- Motley Crue
-------------------------------------------------------------------------------

Tabbed by: [travis]


No one seems to have tabbed this song out right. So here
is a final correct version of "Looks That Kill." It's a
pretty easy song, like all Motley Crue songs, same goes for
the solo in this song.

Tuning: Down 1 step (D G C F A D) All guitars

Key:
... = palm mute
b = bend
/ = slide up
\ = slide down
.25 = quarter step bend
.5 = half step bend
1 = one hole step bend
.75 = three quarter step bend
~ = ring out or vibrato
h = hammer on
p = pull off
* = pinch harmonic
2h/4 = one phrase with one pick
w = wammy bar
x = muted string
[ ] = steps on wammy bar
- = how much steps to push down on wammy bar
( ) = note barely heard, or bring bent note back to normal


Intro:
Guitar 1: Play this four times.
D|----------------------------------------------------|
A|----------------------------------------------------|
F|-------2---------2---------7---------7---------7p\6-|
C|-------2---------2---------5---------5---------5p\4-|
G|-0--0------0--0------0--0------0--0------0--0-------|
D|----------------------------------------------------|
   ....      ....      ....      ....      ....

Guitar 2: Play this once during the first riff above ^^:
D|----------------------|
A|--------5-------------|
F|--------2-------------|
C|--------2-------------|
G|--------0-------------|
D|----------------------|


+++++++++++++++++++++++++++++++++++++++++++++++
Guitar 2: Play this part during the third time of playing the riff above ^^:
          .5       1
D|-22--(22)b---(22)b---(22)~~~~~~~~~~~~~-|
A|---------------------------------------|
F|---------------------------------------|
C|---------------------------------------|
G|---------------------------------------|
D|---------------------------------------|

+++++++++++++++++++++++++++++++++++++++++++++++
Guitar 1: Play this part 7 times in all.
D|----------------------------------------------------|
A|----------------------------------------------------|
F|-------2---------2---------7---------7---------7p\6-|
C|-------2---------2---------5---------5---------5p\4-|
G|-0--0------0--0------0--0------0--0------0--0-------|
D|----------------------------------------------------|
   ....      ....      ....      ....      ....

++++++++++++++++++++++++++++++++++++++++++++++
Guitar 1: push the wammy bar down a half step while holding down notes. Listen to the song.
also hold the 5th fret on the F string while moving the wammy bar.
"well, you might not make it back..."
D|-------------------------------------------------------------|
A|-------------------------------------------------------------|
F|--5w---------------------------------------------------------|
C|--3w-[-.5]---[-.5]---[-.5]---[-.5]---[-.5]---[-.5]---[-.5]---|
G|-------------------------------------------------------------|
D|-------------------------------------------------------------|

++++++++++++++++++++++++++++++++++++++++++++++
Guitar 1:
D|-----1----1-------1----1---|
A|-----1----1-------1----1---|
F|-x---0----0-------0----0---|
C|-x---3----3-------3----3---|
G|---------------------------|
D|---------------------------|

++++++++++++++++++++++++++++++++++++++++++++++
Guitar 1:
D|------------------------------------------------------------------------|
A|-------------------------------------------------------6--6--6--6--6--6-|
F|-----------5-----5---------5-----5---------5-----5-----5--5--5--5--5--5-|
C|-2---------2--0--3---------3--0--4---------4--0--5-----3--3--3--3--3--3-|
G|-------0---------------0---------------0--------------------------------|
D|------------------------------------------------------------------------|

++++++++++++++++++++++++++++++++++++++++++++++
Guitar 1:
D|------------------------------------------------------------------------------|
A|----------------------------------------------------------6--6--6--6--6--6----|
F|-0------------5-----5---------5-----5---------5-----5-----5--5--5--5--5--5--0-|
C|-0----2-------2--0--3---------3--0--4---------4--0--5-----3--3--3--3--3--3--0-|
G|----------0---------------0---------------0-----------------------------------|
D|------------------------------------------------------------------------------|

++++++++++++++++++++++++++++++++++++++++++++++
Chorus:
Guitar 1: Play this twice.
D|----------------------------------------------------|
A|----------------------------------------------------|
F|-------2---------2---------7---------7---------7p\6-|
C|-------2---------2---------5---------5---------5p\4-|
G|-0--0------0--0------0--0------0--0------0--0-------|
D|----------------------------------------------------|
   ....      ....      ....      ....      ....

++++++++++++++++++++++++++++++++++++++++++++++
Guitar 1: Play this part 7 times in all.
"Now she's bullet proof, she keeps her motor clean..."
D|----------------------------------------------------|
A|----------------------------------------------------|
F|-------2---------2---------7---------7---------7p\6-|
C|-------2---------2---------5---------5---------5p\4-|
G|-0--0------0--0------0--0------0--0------0--0-------|
D|----------------------------------------------------|
   ....      ....      ....      ....      ....
++++++++++++++++++++++++++++++++++++++++++++++
Guitar 1: Same as the last time.
D|-------------------------------------------------------------|
A|-------------------------------------------------------------|
F|--5w---------------------------------------------------------|
C|--3w-[-.5]---[-.5]---[-.5]---[-.5]---[-.5]---[-.5]---[-.5]---|
G|-------------------------------------------------------------|
D|-------------------------------------------------------------|

++++++++++++++++++++++++++++++++++++++++++++++
Guitar 1:
D|-----1----1-------1----1---|
A|-----1----1-------1----1---|
F|-x---0----0-------0----0---|
C|-x---3----3-------3----3---|
G|---------------------------|
D|---------------------------|

++++++++++++++++++++++++++++++++++++++++++++++
Guitar 1:
D|------------------------------------------------------------------------|
A|-------------------------------------------------------6--6--6--6--6--6-|
F|-----------5-----5---------5-----5---------5-----5-----5--5--5--5--5--5-|
C|-2---------2--0--3---------3--0--4---------4--0--5-----3--3--3--3--3--3-|
G|-------0---------------0---------------0--------------------------------|
D|------------------------------------------------------------------------|

++++++++++++++++++++++++++++++++++++++++++++++
Guitar 1:
D|------------------------------------------------------------------------------|
A|----------------------------------------------------------6--6--6--6--6--6----|
F|-0------------5-----5---------5-----5---------5-----5-----5--5--5--5--5--5--0-|
C|-0----2-------2--0--3---------3--0--4---------4--0--5-----3--3--3--3--3--3--0-|
G|----------0---------------0---------------0-----------------------------------|
D|------------------------------------------------------------------------------|

+++++++++++++++++++++++++++++++++++++++++++++++
Chorus 2:
Guitar 1: Play this once.
D|----------------------------------------------------|
A|----------------------------------------------------|
F|-------2---------2---------7---------7---------7p\6-|
C|-------2---------2---------5---------5---------5p\4-|
G|-0--0------0--0------0--0------0--0------0--0-------|
D|----------------------------------------------------|
   ....      ....      ....      ....      ....

+++++++++++++++++++++++++++++++++++++++++++++++
Guitar 1:
D|-----------------------------------------------------|
A|-----------------------------------------------------|
F|-------2---------2---------7---------7---------7--7--|
C|-------2---------2---------5---------5---------5--5--|
G|-0--0------0--0------0--0------0--0------0--0--------|
D|-----------------------------------------------------|
   ....      ....      ....      ....      ....

+++++++++++++++++++++++++++++++++++++++++++++++
Cool little riff:
Guitar 1:
D|------------------------------------------------------------------------------------------|
A|-----------------13--------------------------------10---9--------------------------8----7-|
F|-14---------12---12---12---12-12---12----------9----9---9----9--9--10----------5---7----7-|
C|-14---14----12---12---12---12-12---12----12---11---10---9----9-----10----10----5---5----7-|
G|-12---11----10--------10-----------10-----9-------------------------8-----7----5----------|
D|------------------------------------------------------------------------------------------|

+++++++++++++++++++++++++++++++++++++++++++++++
Guitar 1:
D|------------------------------------------------------------------------|
A|------------------------------------------------------------------------|
F|-------2---------2---------7---------7---------7p\6---------2---------2-|
C|-------2---------2---------5---------5---------5p\4---------2---------2-|
G|-0--0------0--0------0--0------0--0------0--0---------0--0------0--0----|
D|------------------------------------------------------------------------|
   ....      ....      ....      ....      ....         ....      ....
+++++++++++++++++++++++++++++++++++++++++++++++
Guitar Solo:
Guitar 1:
D|------------------------------------------------|
A|------------------------------------------------|
F|-7--7--7--7--7--7--7--7--7--7--7--7--7--7--7--7-|
C|-5--5--5--5--5--5--5--5--5--5--5--5--5--5--5--5-|
G|------------------------------------------------|
D|------------------------------------------------|
   ..............................................

Guitar 2:
                                               1
D|--------------------------------------------------------|
A|-------------------------------6--5--8---5--8b----(8)p5-|
F|-------------------2--1--5--4---------------------------|
C|-------------3--2---------------------------------------|
G|--------------------------------------------------------|
D|-3--3--3--3---------------------------------------------|
   ..........

+++++++++++++++++++++++++++++++++++++++++++++++++
Guitar 1: Play this part 4 times over the solo:
D|----------------------------------------------------|
A|----------------------------------------------------|
F|-------2---------2---------7---------7---------7p\6-|
C|-------2---------2---------5---------5---------5p\4-|
G|-0--0------0--0------0--0------0--0------0--0-------|
D|----------------------------------------------------|
   ....      ....      ....      ....      ....

Guitar 2:
                                                1                       1
D|--------------------------------------------------5--------------------------------|
A|-8p5h8p5---5---8p5h8p5-----8p5-8p5----5h8p5--8b-----8p5---5--5--5--5---------------|
F|---------9-------------9-----------8--------------------8------------7b------(7)p5-|
C|-----------------------------------------------------------------------------------|
G|-----------------------------------------------------------------------------------|
D|-----------------------------------------------------------------------------------|

++++++++++++++++++++++++++++++++++++++++++++++++++
Guitar 2:
     1           1             1          1       1
D|---------------------------------------------------------------------------------|
A|---------------------------------------------------------------------------------|
F|-7*b---(7)p5--7b---(7)p5--------------------------------------8--7--8--7p5-------|
C|-------------------------7~~~b----(7)\-------------------------------------7~~~~~|
G|---------------------------------------5b~~~~--5b-------(5)----------------------|
D|---------------------------------------------------------------------------------|

++++++++++++++++++++++++++++++++++++++++++++++++++
Guitar 2: Let the pinch harmonic on the 7th fret ring out as your bending it up and down.
    .5      .5       .5          .5
D|----------------------------------------5---------------------------|
A|--------------------------------------5---8p5---5-------------------|
F|-7*b----(7)b-----(7)b~~~~~~----7b-------------8---8-7--5-7-7-5------|
C|----------------------------------------------------------------7p5-|
G|--------------------------------------------------------------------|
D|--------------------------------------------------------------------|

++++++++++++++++++++++++++++++++++++++++++++++++++
Guitar 2:
                                 1.5
D|----------------------------------|
A|----------------------------------|
F|----------------------------------|
C|-5--------------------------------|
G|----7-6-5-3--5--3~~-0-0-----------|
D|-------------------------5----5*b-|


Guitar 1: Play this after the last note of the solo.
D|--------|
A|--------|
F|-5~~~~--|
C|-3~~~~--|
G|--------|
D|--------|

+++++++++++++++++++++++++++++++++++++++++++++++++++
Guitar 1: Play this part 7 times
"Yeah! Now listen up..."
D|----------------------------------------------------|
A|----------------------------------------------------|
F|-------2---------2---------7---------7---------7p\6-|
C|-------2---------2---------5---------5---------5p\4-|
G|-0--0------0--0------0--0------0--0------0--0-------|
D|----------------------------------------------------|
   ....      ....      ....      ....      ....

+++++++++++++++++++++++++++++++++++++++++++++++++++
Guitar 1: Same as the other times.
D|-------------------------------------------------------------|
A|-------------------------------------------------------------|
F|--5w---------------------------------------------------------|
C|--3w-[-.5]---[-.5]---[-.5]---[-.5]---[-.5]---[-.5]---[-.5]---|
G|-------------------------------------------------------------|
D|-------------------------------------------------------------|

++++++++++++++++++++++++++++++++++++++++++++++++++++
Guitar 1:
D|-----1----1-------1----1---|
A|-----1----1-------1----1---|
F|-x---0----0-------0----0---|
C|-x---3----3-------3----3---|
G|---------------------------|
D|---------------------------|

++++++++++++++++++++++++++++++++++++++++++++++++++++
Guitar 1:
D|------------------------------------------------------------------------|
A|-------------------------------------------------------6--6--6--6--6--6-|
F|-----------5-----5---------5-----5---------5-----5-----5--5--5--5--5--5-|
C|-2---------2--0--3---------3--0--4---------4--0--5-----3--3--3--3--3--3-|
G|-------0---------------0---------------0--------------------------------|
D|------------------------------------------------------------------------|

++++++++++++++++++++++++++++++++++++++++++++++++++++
Guitar 1:
D|------------------------------------------------------------------------------|
A|----------------------------------------------------------6--6--6--6--6--6----|
F|-0------------5-----5---------5-----5---------5-----5-----5--5--5--5--5--5--0-|
C|-0----2-------2--0--3---------3--0--4---------4--0--5-----3--3--3--3--3--3--0-|
G|----------0---------------0---------------0-----------------------------------|
D|------------------------------------------------------------------------------|

++++++++++++++++++++++++++++++++++++++++++++++++++++
Chorus 3:
Guitar 1: Play this part twice.
D|----------------------------------------------------|
A|----------------------------------------------------|
F|-------2---------2---------7---------7---------7p\6-|
C|-------2---------2---------5---------5---------5p\4-|
G|-0--0------0--0------0--0------0--0------0--0-------|
D|----------------------------------------------------|
   ....      ....      ....      ....      ....

+++++++++++++++++++++++++++++++++++++++++++++++++++++
Guitar 1:
D|------------------------------------------------------------------------------------------|
A|-----------------13--------------------------------10---9--------------------------8----7-|
F|-14---------12---12---12---12-12---12----------9----9---9----9--9--10----------5---7----7-|
C|-14---14----12---12---12---12-12---12----12---11---10---9----9-----10----10----5---5----7-|
G|-12---11----10--------10-----------10-----9-------------------------8-----7----5----------|
D|------------------------------------------------------------------------------------------|

+++++++++++++++++++++++++++++++++++++++++++++++++++++
Guitar 1: Play this twice, and repeat until the song is done.
D|----------------------------------------------------|
A|----------------------------------------------------|
F|-------2---------2---------7---------7---------7p\6-|
C|-------2---------2---------5---------5---------5p\4-|
G|-0--0------0--0------0--0------0--0------0--0-------|
D|----------------------------------------------------|
   ....      ....      ....      ....      ....

+++++++++++++++++++++++++++++++++++++++++++++++++++++
That's all. Comment and Rate it.
[travis]
Suggest correction
comments
print report bad tab
15 comments total. Showing first comments.
0 reply
stardude8 10 Jan 20, 2008 01:04 PM

WRONG!!!!!!!!!!
no offense but this tab pretty much sucks.However, you got part of it right so it's a 2 star

0 reply
[travis] 2,913 Jan 21, 2008 03:03 PM

To let you people know, this tab came out of the official tab book, so don't blame me. It sounds correct to me.

0 reply
stardude8 10 Feb 26, 2008 05:59 PM

Im not blaming you dude I just said it was not 100% correct.

guest
You may want to rate the tab now too:
select rating
Wanna post a correction for this tab? Suggest correction