Oops, an error
Loading. Please wait.

Looks That Kill Bass Tab

version 3
version 3
13,547 views 21 this week
7 commentsread comments
1 2 3 4 5
accurate
x 5
add to favorites
launch autoscroll
font size
0
reset
guitar tuner
Autoscroll
slow
fast
+/-
esc
set tempo
stop
Help us to improve Ultimate-Guitar.com Take our survey!
×
Author
Difficulty
rocklvson 2,301
intermediate
Artist:Motley Crue
Song:Looks That Kill
Album:Shout At The Devil
Bassist:Nikki Sixx
Tabber:Dev Fuld

Well, I've already tabbed this song...but this version is corrected. 
And I've tabbed the corrected version already, but it got deleted. 
So here it goes again...

Key:
x = times a number
b = bend
* = let it ring

*Guitar Intro*

Verse
G:--------------------------|
D:---5----5----3----3----3-2|
A:--------------------------| x7
E:33---33---33---33---33----|

Pre-Chorus ("You might not...")
G:-----------------|-----|
D:-----------------|-----|
A:6b*-b-b-b-b-b-b-b|66-66|
E:-----------------|-----|

1st part of chorus
G:-----------------------|
D:-----------------------|
A:5------6------7------8*| x2
E:--3--3---3--3---3--3---|

2nd part of chorus
G:--------------------------|
D:---5----5----3----3----3-2|
A:--------------------------| x2
E:33---33---33---33---33----|

Verse

Pre-Chorus

1st part of chorus

2nd part of chorus

Bridge
G:-------------------------------------|
D:-------------------------------------|
A:10-10-10-12-10--8-8-8-10-8--6-6-6-8-6|
E:-------------------------------------|

2nd part of chorus

Solo = Verse

Pre-Chorus

*Guitar break*

Verse

1st part of chorus

2nd part of chorus

Bridge

2nd part of chorus

That's it! This version is most accurate. I already put it in 
order for you, so Rock N Roll! Any questions or comments, e-mail 
me at rocklvson@yahoo.com
Suggest correction
What's this?
You can suggest a correction to this tab. Community and Mods will review your correction and vote to approve or reject it.
comments
print report bad tab
7 comments total. Showing first comments.
0 reply
PUNKfromNORWAY 501 wrote on April 28 2008, 05:19 pm

Just perfect, like i've said before your tabs rocks, keep it up!

0 reply
codyclement 33 wrote on August 29 2010, 08:31 pm

thanks, this was very accurate iou1

+1 reply
MaggaraMarine 3,470 wrote on October 3 2011, 02:06 am

Mötley tuning is full step down!!!

guest
You may want to rate the tab now too:
select rating
Please do not post tabs as comments. Select "correction" instead!