Oops, an error
Loading. Please wait.

Looks That Kill Tab

version 3
version 3
38,908 views 102 this week
no commentswrite comment
1 2 3 4 5
x 21
add to favorites
launch autoscroll
font size
0
reset
how to read this tab
guitar tuner
Autoscroll
slow
fast
+/-
esc
set tempo
stop
Help us to improve Ultimate-Guitar.com Take our survey!
×
Author
Difficulty
Tuning
intermediate
D G C F A D
Looks That Kill
By: Mötley Crüe
Tuning: D standard.

[Intro](first round)
[Guitar 1 only]
D|-----------------------------------|-----------------------------------|
A|------10----10----8-----8-----8\7--|------10----10----8-----8-----8\7--|
F|------9-----9-----7-----7-----7\6--|------9-----9-----7-----7-----7\6--|
C|------7-----7-----5-----5-----5\4--|------7-----7-----5-----5-----5\4--|
G|--0-0---0-0---0-0---0-0---0-0------|--0-0---0-0---0-0---0-0---0-0------|
D|-----------------------------------|-----------------------------------|
    x x   x x   x x   x x   x x         x x   x x   x x   x x   x x

[Intro](second round)
[Guitar 1]
D|-----------------------------------|-----------------------------------|
A|------10----10----8-----8-----8\7--|------10----10----8-----8-----8\7--|
F|------9-----9-----7-----7-----7\6--|------9-----9-----7-----7-----7\6--|
C|------7-----7-----5-----5-----5\4--|------7-----7-----5-----5-----5\4--|
G|--0-0---0-0---0-0---0-0---0-0------|--0-0---0-0---0-0---0-0---0-0------|
D|-----------------------------------|-----------------------------------|
 |  x x   x x   x x   x x   x x      |  x x   x x   x x   x x   x x
                                     |
[Guitar 2]                  
D|-----------------------------------|--22b(24)~~~~~~~~~~~~~~~~~~~~~~~~--|
A|-----------------------------------|-----------------------------------|
F|--2--------------------------------|-----------------------------------|
C|--2--------------------------------|-----------------------------------|
G|--0--------------------------------|-----------------------------------|
D|-----------------------------------|-----------------------------------|
      let ring.                            use vibrato bar
                                                                    Now,
[Verse 1]
D|-----------------------------------|-----------------------------------|
A|------10----10----8-----8-----8\7--|------10----10----8-----8-----8\7--|
F|------9-----9-----7-----7-----7\6--|------9-----9-----7-----7-----7\6--|
C|------7-----7-----5-----5-----5\4--|------7-----7-----5-----5-----5\4--|
G|--0-0---0-0---0-0---0-0---0-0------|--0-0---0-0---0-0---0-0---0-0------|
D|-----------------------------------|-----------------------------------|
    x x   x x   x x   x x   x x         x x   x x   x x   x x   x x
    listen up!                  She’s razor sharp.            If she don’t

D|-----------------------------------|-----------------------------------|
A|------10----10----8-----8-----8\7--|------10----10----8-----8-----8\7--|
F|------9-----9-----7-----7-----7\6--|------9-----9-----7-----7-----7\6--|
C|------7-----7-----5-----5-----5\4--|------7-----7-----5-----5-----5\4--|
G|--0-0---0-0---0-0---0-0---0-0------|--0-0---0-0---0-0---0-0---0-0------|
D|-----------------------------------|-----------------------------------|
    x x   x x   x x   x x   x x         x x   x x   x x   x x   x x
     get her way,              she will   slice you apart.       Now she’s

D|-----------------------------------|-----------------------------------|
A|------10----10----8-----8-----8\7--|------10----10----8-----8-----8\7--|
F|------9-----9-----7-----7-----7\6--|------9-----9-----7-----7-----7\6--|
C|------7-----7-----5-----5-----5\4--|------7-----7-----5-----5-----5\4--|
G|--0-0---0-0---0-0---0-0---0-0------|--0-0---0-0---0-0---0-0---0-0------|
D|-----------------------------------|-----------------------------------|
    x x   x x   x x   x x   x x         x x   x x   x x   x x   x x
     cool, cool black.          She     moves like a cat.     If you don’t

D|-----------------------------------|-----------------------------------|
A|------10----10----8-----8-----8\7--|--6-v-v-v-v-v-v-v---6-6---6-6------|
F|------9-----9-----7-----7-----7\6--|--5-----------------5-5---5-5------|
C|------7-----7-----5-----5-----5\4--|--3-----------------3-3---3-3------|
G|--0-0---0-0---0-0---0-0---0-0------|-----------------------------------|
D|-----------------------------------|-----------------------------------|
    x x   x x   x x   x x   x x
   get her game…well, you might not make it back. She’s got the looks that

[Pre-chorus]
D|-----------------------------------|-----------------------------------|
A|-----------------------------------|----------------------6-6-6-6-6-6--|
F|--------------5---5-----------5----|--5-----------5---5---5-5-5-5-5-6--|
C|--2-----------2---3-----------3----|--4-----------4---5---3-3-3-3-3-3p0|
G|------0---------------0------------|------0----------------------------|
D|-----------------------------------|-----------------------------------|
     kill.                      That    kill.     She’s got the looks that

D|-----------------------------------|-----------------------------------|
A|-----------------------------------|----------------------6-6-6-6-6-6/8|
F|--------------5---5-----------5----|--5-----------5---5---5-5-5-5-5-6/7|
C|--2-----------2---3-----------3----|--4-----------4---5---3-3-3-3-3-3/5|
G|------0---------------0------------|------0----------------------------|
D|-----------------------------------|-----------------------------------|
     kill.                      That    kill.          She’s got the look…

[1st Chorus]
D|-----------------------------------|-----------------------------------|
A|------10----10----8-----8-----8\7--|------10----10----8-----8-----8\7--|
F|------9-----9-----7-----7-----7\6--|------9-----9-----7-----7-----7\6--|
C|------7-----7-----5-----5-----5\4--|------7-----7-----5-----5-----5\4--|
G|--0-0---0-0---0-0---0-0---0-0------|--0-0---0-0---0-0---0-0---0-0------|
D|-----------------------------------|-----------------------------------|
    x x   x x   x x   x x   x x         x x   x x   x x   x x   x x
        She’s got   looks that kill.  She’s got looks that kill. Now she’s

[Verse 2]
D|-----------------------------------|-----------------------------------|
A|------10----10----8-----8-----8\7--|------10----10----8-----8-----8\7--|
F|------9-----9-----7-----7-----7\6--|------9-----9-----7-----7-----7\6--|
C|------7-----7-----5-----5-----5\4--|------7-----7-----5-----5-----5\4--|
G|--0-0---0-0---0-0---0-0---0-0------|--0-0---0-0---0-0---0-0---0-0------|
D|-----------------------------------|-----------------------------------|
    x x   x x   x x   x x   x x         x x   x x   x x   x x   x x
    bullet proof.               She keeps her motor clean.          Ooh,

D|-----------------------------------|-----------------------------------|
A|------10----10----8-----8-----8\7--|------10----10----8-----8-----8\7--|
F|------9-----9-----7-----7-----7\6--|------9-----9-----7-----7-----7\6--|
C|------7-----7-----5-----5-----5\4--|------7-----7-----5-----5-----5\4--|
G|--0-0---0-0---0-0---0-0---0-0------|--0-0---0-0---0-0---0-0---0-0------|
D|-----------------------------------|-----------------------------------|
    x x   x x   x x   x x   x x         x x   x x   x x   x x   x x
     and believe me, you…      …she’s a number thirteen.            The

D|-----------------------------------|-----------------------------------|
A|------10----10----8-----8-----8\7--|------10----10----8-----8-----8\7--|
F|------9-----9-----7-----7-----7\6--|------9-----9-----7-----7-----7\6--|
C|------7-----7-----5-----5-----5\4--|------7-----7-----5-----5-----5\4--|
G|--0-0---0-0---0-0---0-0---0-0------|--0-0---0-0---0-0---0-0---0-0------|
D|-----------------------------------|-----------------------------------|
    x x   x x   x x   x x   x x         x x   x x   x x   x x   x x
     church strikes midnight. She’s looking louder and louder. She’s gonna

D|-----------------------------------|-----------------------------------|
A|------10----10----8-----8-----8\7--|--6-v-v-v-v-v-v-v---6-6---6-6------|
F|------9-----9-----7-----7-----7\6--|--5-----------------5-5---5-5------|
C|------7-----7-----5-----5-----5\4--|--3-----------------3-3---3-3------|
G|--0-0---0-0---0-0---0-0---0-0------|-----------------------------------|
D|-----------------------------------|-----------------------------------|
    x x   x x   x x   x x   x x
 turn on your juice, boy. She turns on the power. She’s got the looks that

[Pre-chorus]
D|-----------------------------------|-----------------------------------|
A|-----------------------------------|----------------------6-6-6-6-6-6--|
F|--------------5---5-----------5----|--5-----------5---5---5-5-5-5-5-6--|
C|--2-----------2---3-----------3----|--4-----------4---5---3-3-3-3-3-3p0|
G|------0---------------0------------|------0----------------------------|
D|-----------------------------------|-----------------------------------|
     kill.                      That    kill.     She’s got the looks that

D|-----------------------------------|-----------------------------------|
A|-----------------------------------|----------------------6-6-6-6-6-6/8|
F|--------------5---5-----------5----|--5-----------5---5---5-5-5-5-5-6/7|
C|--2-----------2---3-----------3----|--4-----------4---5---3-3-3-3-3-3/5|
G|------0---------------0------------|------0----------------------------|
D|-----------------------------------|-----------------------------------|
     kill.                      That    kill.          She’s got the look…

[2nd Chorus]
D|-----------------------------------|-----------------------------------|
A|------10----10----8-----8-----8\7--|------10----10----8-----8-----8\7--|
F|------9-----9-----7-----7-----7\6--|------9-----9-----7-----7-----7\6--|
C|------7-----7-----5-----5-----5\4--|------7-----7-----5-----5-----5\4--|
G|--0-0---0-0---0-0---0-0---0-0------|--0-0---0-0---0-0---0-0---0-0------|
D|-----------------------------------|-----------------------------------|
    x x   x x   x x   x x   x x         x x   x x   x x   x x   x x
        She’s got  looks that kill.         She’s got looks that kill.

[Mid-chorus break](3 bars of 2/4)
D|------------------|-----------------|-----------------|
A|---------x-13p12--|---------x-10p9--|---------x--8p7--|
F|---------x-12-----|---------x--9----|---------x--7----|
C|--14-14--x--------|--12-12--x-------|--10-10--x-------|
G|--12-11-----------|--10--9----------|---8--7----------|
D|------------------|-----------------|-----------------|

[Chorus continued]
D|-----------------------------------|---------------------[Guit 2: Solo starts]-|
A|------10----10----8-----8-----8\7--|------10----10-----------------------------|
F|------9-----9-----7-----7-----7\6--|------9-----9-----------------7-7-7-7-7-7--|
C|------7-----7-----5-----5-----5\4--|------7-----7-----------------5-5-5-5-5-5--|
G|--0-0---0-0---0-0---0-0---0-0------|--0-0---0-0---0-0-5-5-5-5-5-5--------------|
D|-----------------------------------|------------------3-3-3-3-3-3--------------|
    x x   x x   x x   x x   x x         x x   x x   x x x x x x x x x x x x x x
        She’s got   looks that kill.        She’s got   looks...

[Rhythm during guitar solo](Guitar 1)
D|-----------------------------------|-----------------------------------|
A|------10----10----8-----8-----8\7--|------10----10----8-----8-----8\7--|
F|------9-----9-----7-----7-----7\6--|------9-----9-----7-----7-----7\6--|
C|------7-----7-----5-----5-----5\4--|------7-----7-----5-----5-----5\4--|
G|--0-0---0-0---0-0---0-0---0-0------|--0-0---0-0---0-0---0-0---0-0------|
D|-----------------------------------|-----------------------------------|
    x x   x x   x x   x x   x x         x x   x x   x x   x x   x x

D|-----------------------------------|-----------------------------------|
A|------10----10----8-----8-----8\7--|------10----10----8-----8-----8\7--|
F|------9-----9-----7-----7-----7\6--|------9-----9-----7-----7-----7\6--|
C|------7-----7-----5-----5-----5\4--|------7-----7-----5-----5-----5\4--|
G|--0-0---0-0---0-0---0-0---0-0------|--0-0---0-0---0-0---0-0---0-0------|
D|-----------------------------------|-----------------------------------|
    x x   x x   x x   x x   x x         x x   x x   x x   x x   x x

D|-----------------------------------|
A|--6--------------------------------|
F|--5--------------------------------|
C|--3--------------------------------|
G|-----------------------------------|
D|-----------------------------------|
    let ring.

[Intro to Verse 3]
[Guitar 1 only]
D|-----------------------------------|-----------------------------------|
A|------10----10----8-----8-----8\7--|------10----10----8-----8-----8\7--|
F|------9-----9-----7-----7-----7\6--|------9-----9-----7-----7-----7\6--|
C|------7-----7-----5-----5-----5\4--|------7-----7-----5-----5-----5\4--|
G|--0-0---0-0---0-0---0-0---0-0------|--0-0---0-0---0-0---0-0---0-0------|
D|-----------------------------------|-----------------------------------|
    x x   x x   x x   x x   x x         x x   x x   x x   x x   x x

D|-----------------------------------|-----------------------------------|
A|------10----10----8-----8-----8\7--|------10----10----8-----8-----8\7--|
F|------9-----9-----7-----7-----7\6--|------9-----9-----7-----7-----7\6--|
C|------7-----7-----5-----5-----5\4--|------7-----7-----5-----5-----5\4--|
G|--0-0---0-0---0-0---0-0---0-0------|--0-0---0-0---0-0---0-0---0-0------|
D|-----------------------------------|-----------------------------------|
    x x   x x   x x   x x   x x      |  x x   x x   x x   x x   x x
     Hey!  
                          
[Guitar 2]
|--22b(24)~~~~~~~~~~~~~~~~~~~~~~~~--|
|-----------------------------------|
|-----------------------------------|
|-----------------------------------|
|-----------------------------------|
|-----------------------------------|
use vibrato bar

(Now repeat Verse 1 and the Pre-chorus, and then)

[3rd Chorus]
D|-----------------------------------|-----------------------------------|
A|------10----10----8-----8-----8\7--|------10----10----8-----8-----8\7--|
F|------9-----9-----7-----7-----7\6--|------9-----9-----7-----7-----7\6--|
C|------7-----7-----5-----5-----5\4--|------7-----7-----5-----5-----5\4--|
G|--0-0---0-0---0-0---0-0---0-0------|--0-0---0-0---0-0---0-0---0-0------|
D|-----------------------------------|-----------------------------------|
    x x   x x   x x   x x   x x         x x   x x   x x   x x   x x
        She’s got   looks that kill.        She’s got looks that kill.

[Mid-chorus break](3 bars of 2/4)
D|------------------|-----------------|-----------------|
A|---------x-13p12--|---------x-10p9--|---------x--8p7--|
F|---------x-12-----|---------x--9----|---------x--7----|
C|--14-14--x--------|--12-12--x-------|--10-10--x-------|
G|--12-11-----------|--10--9----------|---8--7----------|
D|------------------|-----------------|-----------------|

[Chorus continued]
D|-----------------------------------|-----------------------------------|
A|------10----10----8-----8-----8\7--|------10----10----8-----8-----8\7--|
F|------9-----9-----7-----7-----7\6--|------9-----9-----7-----7-----7\6--|
C|------7-----7-----5-----5-----5\4--|------7-----7-----5-----5-----5\4--|
G|--0-0---0-0---0-0---0-0---0-0------|--0-0---0-0---0-0---0-0---0-0------|
D|-----------------------------------|-----------------------------------|
    x x   x x   x x   x x   x x         x x   x x   x x   x x   x x
        She’s got   looks that kill.        She’s got looks that kill.

D|-----------------------------------|-----------------------------------|
A|------10----10----8-----8-----8\7--|------10----10----8-----8-----8\7--|
F|------9-----9-----7-----7-----7\6--|------9-----9-----7-----7-----7\6--|
C|------7-----7-----5-----5-----5\4--|------7-----7-----5-----5-----5\4--|
G|--0-0---0-0---0-0---0-0---0-0------|--0-0---0-0---0-0---0-0---0-0------|
D|-----------------------------------|-----------------------------------|
    x x   x x   x x   x x   x x         x x   x x   x x   x x   x x
        She’s got   looks that kill.        She’s got looks that kill.

[Ending]
[Guitar 1]
D|--------------------------------------------|       b = bend
A|--------------------------------------------|       v = vibrato bar dip
F|--2-----------------------------------------|       ~ = vibrato
C|--2-----------------------------------------|       / = slide up
G|--0-----------------------------------------|       \ = slide down
D|--------------------------------------------|       h = hammer on
    let ring until happy.        End.        p = pull off
                                             x (inside TAB) = muted note
[Guitar 2]                                   x (under TAB) = palm muting
D|-----------------------------------|
A|--10-------------------------------|
F|--9--------------------------------|
C|--7--------------------------------|
G|--0--------------------------------|
D|-----------------------------------|
    let ring until happy.        End.

[Guitar solo](Guitar 2)
D|-------------------------------------------------------------------|
A|-----------------------6-5-8-5-8b---8p5h8p5h8p5h8p5h8p5h8p5h8p5-8b-|
F|------------------5-4----------------------------------------------|
C|--5-5-5-5-----7-5--------------------------------------------------|
G|----------8-7------------------------------------------------------|
D|-------------------------------------------------------------------|

D|---------------------------------------------------------------------------------|
A|--5----5-5-----------------------------------------------------------------------|
F|----7b-----7b--7p5--7b-7b-5-------------------7b-7b-7b-7-5-----7b--7-7b-7-7b--7b-|
C|----------------------------7-------------------------------7--------------------|
G|-------------------------------5b~~--------5-------------------------------------|
D|---------------------------------------------------------------------------------|

D|--5---------------------------------------------------------|
A|-----8p5----5-----------------------------------------------|
F|----------8---87--5-7-7-5-----------------------------------|
C|---------------------------7-5------------------------------|
G|--------------------------------7p53-5------------0-v-v-----|
D|-----------------------------------------5-5-5-5------------|

************************************

| \  Slide down
| p  Pull-off
| /  Slide up
| x  Dead note
| h  Hammer-on
| b  Bend

************************************

Suggest correction
comments
print report bad tab
guest
You may want to rate the tab now too:
select rating
Wanna post a correction for this tab? Suggest correction