Oops, an error
Loading. Please wait.

Looks That Kill Bass Tab

version 4
version 4
5,209 views 15 this week
3 commentsread comments
1 2 3 4 5
x 3
add to favorites
launch autoscroll
font size
0
reset
guitar tuner
Autoscroll
slow
fast
+/-
esc
set tempo
stop
Help us to improve Ultimate-Guitar.com Take our survey!
×
Author
Difficulty
novice
Artist: Motley Crue.
Title: Looks that kill.
Tuning: D standard.

This is my tab, I don't know if it's perfect but I like it. Sorry for my English, but I'm Italian.

Intro/verse/chorus part 2/solo of guitar.
F|------------------------------------|
C|------7-----7-----5-----5-----5/4---|
G|--0-0---0-0---0-0---0-0---0-0-------|
D|------------------------------------|

For verse this is good too.
F|-------------------------------------------------|
C|-0-0-0-0-0-0-0-0-0-0-0-0-0-0-0-0-0-0-0-0-0-0-0-0-|
G|-------------------------------------------------|
D|-------------------------------------------------|

Pre-chorus.
F|-----------------------------|
C|-3~-----------3-3---3-3--3-3-|
G|-----------------------------|
D|-----------------------------|

Chorus part 1.
F|---------------------------------|
C|--2----2---3----3---4----4---5-5-|
G|---0----0---0----0---0----0------|
D|---------------------------------|

Bridge.
F|---------------------------------------|
C|--5-5--5-7-5---3-3--3-4-3---1-1--1-3-1-|
G|---------------------------------------|
D|---------------------------------------|

Comment if you have doubts (right the grammar? xD).
Suggest correction
Give kudos to tab author, rate the tab!
1 2 3 4 5
comments
print report bad tab
3 comments total.
0 reply
crizzy218 1,070 Sep 28, 2012 01:50 PM

your 2nd version of the verse should be all open (0) on the A string(tuned to G), you probably just wrote it down wrong

+1 reply
johnnynausea 849 Nov 20, 2012 03:37 PM

Another bad tab of a great Crue tune. Cant you guys learn your sh!t before you post a wrong tab?

+1 reply
kellynickels 3,014 Jan 25, 2015 07:08 AM

didn't like this contribution

guest
You may want to rate the tab now too:
select rating
Wanna post a correction for this tab? Suggest correction