Oops, an error
Loading. Please wait.

Louder Than Hell Bass Tab

version 1
version 1

Whole song

Interactive

2,546 views 3 this week
1 commentread comment
1 2 3 4 5
1 last vote to show rating
add to favorites
launch autoscroll
font size
0
reset
guitar tuner
Autoscroll
slow
fast
+/-
esc
set tempo
stop
Help us to improve Ultimate-Guitar.com Take our survey!
×
Author
Difficulty
intermediate
Artist:Motley Crue
Song:Louder Than Hell
Album:Theatre of Pain
Bassist:Nikki Sixx
Tabber:Dev Fuld

This is an awesome song. Got some cool stuff in it, and this tab is correct.

Key:
* = let it ring

*Drum Intro*

Intro
G:-----------------|
D:-----------------|
A:-----------------|
E:3*----3*--3*----3|

Verse
G:-----------------------------------------------------------------------------|
D:55555-3-----------------55555-3-----------------55555-3-----------------55555|
A:--------5-3---------3-5---------5-3---------3-5---------5-3---------3-5------|
E:------------33333-5-----------------33333-5-----------------33333-5----------|

G:-----------|
D:3----------|
A:--5-3------|
E:------33333|

G:-----------------------------------------------------------------------------------|
D:------55555-3-----------------55555-3-----------------55555-3-----------------55555|
A:--3-5---------5-3---------3-5---------5-3---------3-5---------5-3---------3-5------|
E:5-----------------33333-5-----------------33333-5-----------------33333-5----------|

G:-----------|
D:3----------|
A:--5-3------|
E:------33333|

Pre-Chorus
G:----------------|---------------|
D:---1*-----------|---1*----------|
A:----------------|---------------|
E:3*----3*---1--1*|3*----111111111|

Chorus
G:-------------------------------|-------------------------------|
D:-------------------------------|-------------------------------|
A:----1-3-4-3-1-3-1-------1----1*|----1-3-4-3-1-3-1--------------|
E:3-3----------------3-3*---1*---|3-3----------------3-3--3-3--3*|

Intro

Verse 2
G:-----------------------------------------------------------------------------|
D:55555-3-----------------55555-3-----------------55555-3-----------------55555|
A:--------5-3---------3-5---------5-3---------3-5---------5-3---------3-5------|
E:------------33333-5-----------------33333-5-----------------33333-5----------|

G:-----------|
D:3----------|
A:--5-3------|
E:------33333|

Pre-Chorus

Chorus

Solo
G:----------------|---------------|
D:---1*-----------|---1*----------|
A:----------------|---------------|
E:3*----3*---1--1*|3*----111111111|

Chorus
G:-------------------------------|-------------------------------|
D:-------------------------------|-------------------------------|
A:----1-3-4-3-1-3-1-------1----1*|----1-3-4-3-1-3-1-------1----1*|
E:3-3----------------3-3*---1*---|3-3----------------3-3*---1*---|

G:-----------------------------|-----------------------------------------|
D:-----------------------------|-------------------------------5-3-------|
A:----1-3-4-3-1-3-1-------1---1|----1-3-4-3-1-3-1------------------5-4-3-|
E:3-3----------------3-3*---1--|3-3----------------3-3--3-3--3----------3|

End
G:---------------|
D:---------------|
A:3-4-3-1-3-1----|
E:------------3-3|

That's it. Fun song to play, and it's the Crue so play it with attitude. I already 
put it in order. Any questions or comments, e-mail me at rocklvson@yahoo.com
Suggest correction
Give kudos to tab author, rate the tab!
1 2 3 4 5
comments
print report bad tab
1 comment total.
+1 reply
deadgearsrising 30 Jan 21, 2009 03:37 PM

Most of Motley's songs are in D standard, and this is one of them.

guest
You may want to rate the tab now too:
select rating
Wanna post a correction for this tab? Suggest correction