Oops, an error
Loading. Please wait.

Motherfucker Of The Year Tab

version 2
version 2

Whole song

4,399 views 3 this week
1 commentread comment
1 2 3 4 5
worth learning
x 3
add to favorites
launch autoscroll
font size
0
reset
how to read this tab
guitar tuner
Autoscroll
slow
fast
+/-
esc
set tempo
stop
Help us to improve Ultimate-Guitar.com Take our survey!
×
Difficulty
Tuning
intermediate
C G C F A D
THIS IS MY NEW AND BETTER VERSION OF THIS SONG I MADE THE OTHER ONE TOO BUT THIS IS BETTER

TUNING IS DROP D ONE WHOLE STEP DOWN ( C,G,C,F,A,D )


This is the new version i told you guys about. Should be very accurate except i cant get 
chorus line down well. Oh well here it is great song.

Motley Crue
Vince Neil
Mick Mars
Tommy Lee
Nikki Sixx

Motherf****r of the year
Motley Crue
Saints of Los Angeles
2008
Eleven Seven Music

INTRO
Use toggle switch effectm here or tremelo. Riff played under it.
e|-------------|
B|-------------|
G|-------------|
D|-------------|
A|--5----------|
E|-------------|
    TS

RIFF 1
e|-------------------------------------|
B|-------------------------------------|
G|-------------------------------------|
D|--6-5-3-------------6-5-3------------|
A|--6-5-3----6-5-3-0--6-5-3---3-5-6----|
E|--------0--6-5-3-0--------0-3-5-6-0--|
P.M       .        .         .      .

Verses
                               w/wah
e|---------------------------|--------------------------------|
B|---------------------------|--8----7----5---3---------------|
G|---------------------------|-b11--b10--b8---b5--------------|
D|---------------------------|--------------------------------|
A|----------------------PH*--|--------------------------------|
E|--00-5-00-4-00-3-00-2-3----|--------------------------------|
P.M ...................

Pre Chorus

e|-------------------------------------------------|
B|-------------------------------------------------|
G|--2-2-2------------------------------------------|
D|--2-2-2------------------------------------------|
A|--0-0-0-3-3-3---5-5-5----6-6---------------------|
E|--------3-3-3---5-5-5----6-6---------------------|

Everytime.I can   I know.   way..

Chorus
e|------------------------------------------------|
B|------------------------------------------------|
G|------------------------------------------------|
D|----6---5---3-----------3-3--3-3--5-5-5-6-------|
A|--0-6-0-5-0-3--6-5-3-0--3-3--3-3--5-5-5-6-------|
E|---------------6-5-3-0--------------------------|
P.M .   .   .
Here I am      again   Hey  Hey  Mother.Year

1st solo
                                                               PH
e|----------------------------------------------------------------|
B|--15-14-13--9-8-7---15-14-13--8-9-8-7--15-17-18-19-20-21-22-----|
G|-------------------------------------------------------------12-|
D|----------------------------------------------------------------|
A|----------------------------------------------------------------|
E|----------------------------------------------------------------|
This could be played also with multiple notes.


Verse 2
Pre chorus 2
Chorus 2

after chorus 2 solo
                                  PH                   Br
e|---------------------------------------------------------------------|
B|-------------------------------------------------------p--h--p-------|
G|---------0----------7----14-----12---------------p---12-10-12-10-----|
D|-----------------------------------------------15-12-------------12--|
A|--0--------------------------------10-12-13-10-----------------------|
E|--------------15/0---------------------------------------------------|
   PB      DB
                                                            Ph
e|----------------------------------------------------------------------|
B|----------------------------------------------------------br----------|
G|----------------p-----------------------------------------12-10-12-10-|
D|--------------15-12-----------------6-5-3-------6-5-3-----------------|
A|--10-12-13-10-------12-10-8---------6-5-3-6-5-3-6-5-3-6-5-------------|
E|----------------------------12-10-8-------6-5-3-------6-5-------------|


e|----------------------p--h--p--h--p----------------------p--h--p--h--p---|
B|--------------------15-12-14-12-13-12------------------15-12-14-12-13-12-|
G|--------------br----------------------------------br---------------------|
D|--12-12-10-12-12----------------------12-12-10-12-12---------------------|
A|-----------------12----------------------------------12------------------|
E|-------------------------------------------------------------------------|

Do this this way or tap it
e|----h--p-----h--p-----h--p-----h--p-----h--------------------------------|
B|--13-15-13-13-16-13-13-17-13-13-18-13-13-19-19---------------------------|
G|-------------------------------------------------------------------------|
D|-------------------------------------------------------------------------|
A|-------------------------------------------------------------------------|
E|-------------------------------------------------------------------------|

e|----h--p-----h--p-----h------------|
B|--13-15-13-13-16-13-13-17-17-------|
G|-----------------------------------|
D|-----------------------------------|
A|-----------------------------------|
E|-----------------------------15/0--|

Play intro then go into chorus

After the last chorus plays twice it goes into a deeper sounding rhymthm forgot to do 
but it should be simple just play chords on the E and A strings.

e|--------------------------------|
B|--------------------------------|
G|--------------------------------|
D|--12-12-10-10-12-10--10-12-10-8-| Play this a few times you should get it
A|---------------------10-12-10-8-| just fine its simple.
E|--------------------------------|

ENDING

e|-----------------------------------------------------------|
B|-----------------------------------------------------------|
G|----12-10----p--h--p--h--p----------p--h--p--h-------------|
D|--12-------12-10-12-10-12-10------12-10-12-10-12---12~~~~~~|
A|-------------------------------0---------------------------|
E|-----------------------------------------------------------|
                                 DB                  Whammy to fade

_____________________KEY________________________________
P.M= Palm mute
p= Pull of
h= hammer on
br= bend then release
DB= Dive bomb
/= Slide
PB= Pre bend whammy
~= let ring to fade
TS= Toggle switch
Ph= Pinch harmonic
b= Bend


TABBED BY JR
Suggest correction
What's this?
You can suggest a correction to this tab. Community and Mods will review your correction and vote to approve or reject it.
comments
We did not receive enough feedback on this tab! Please rate:
print report bad tab
1 2 3 4 5
1 comment total.
0 reply
Antisatan 10 wrote on August 1 2009, 11:16 am

#

guest
You may want to rate the tab now too:
select rating
Please do not post tabs as comments. Select "correction" instead!