Oops, an error
Loading. Please wait.

Motherfucker Of The Year Tab

version 3
version 3

Whole song

2,055 views 1 this week
no commentswrite comment
1 2 3 4 5
3 more votes to show rating
add to favorites
launch autoscroll
font size
0
reset
how to read this tab
guitar tuner
Autoscroll
slow
fast
+/-
esc
set tempo
stop
Help us to improve Ultimate-Guitar.com Take our survey!
×
Author
-------------------------------------------------------------------------------
                             SONG NAME - Band Name
-------------------------------------------------------------------------------
Tabbed by:
Email:

Tuning:

e|--------------------------------------------------------------------------|
B|--------------------------------------------------------------------------|
G|--------------------------------------------------------------------------|
D|--------------------------------------------------------------------------|
A|--5~----------------------------------------------------------------------|
D|--0~----------------------------------------------------------------------|
Use the wah pedal on this, and play riff 1 under it.

e|--------------------------------------------------------------------------|
B|--------------------------------------------------------------------------|
G|--10^---------------------------------------------------------------------|
D|--10^---------------------------------------------------------------------|
A|--------------------------------------------------------------------------|
D|--------------------------------------------------------------------------|

riff 1 x2
e|---------------------------------------------------------------------------|
B|---------------------------------------------------------------------------|
G|---------------------------------------------------------------------------|
D|-7--6--5----5--4--3--------------------------------------------------------|
A|-5p04p03p0--5--4--3--------------------------------------------------------|
D|------------5p04p03p0------------------------------------------------------|

play this over riff 1
e|-------------------------------|
B|-------6~-8~-------6~----------|
G|--7~-9~-------7~-9~--9~-7~-----|
D|-------------------------------|
A|-------------------------------|
D|-------------------------------|

verse

part 1 x3
This part may be slightly different depending on whether you listen to it live or as the 
version.  It's basically the same though.  The notes are the same, however, the pattern 
be slightly different.
e|-------------------------|
B|-------------------------|
G|-------------------------|
D|-------------------------|
A|-------------------------|
D|-0-006p0-005p0-003-0-----|

part 2 x1
e|-------------------------------|
B|-----6~------------------------|
G|-------9~-7~-5~-7~-------------|
D|-------------------------------|
A|-------------------------------|
D|-------------------------------|

Repeat the verse again, but this time play part 1 two times instead of three.

pre-chorus x1
e|-----------------------------------------------------------------------|
B|-----------------------------------------------------------------------|
G|------------------------------------5/7-7-5/7-7------------------------|
D|--3-3-3-3-3-3-3-3--7-7-7-7-7-7-7-7--5/7-7-5/7-7--8-8-8-8-8-8-8-8-------|
A|--3-3-3-3-3-3-3-3--7-7-7-7-7-7-7-7---------------8-8-8-8-8-8-8-8-------|
D|--3-3-3-3-3-3-3-3--7-7-7-7-7-7-7-7---------------8-8-8-8-8-8-8-8-------|

chorus
part 1 x2
e|---------------------------------------|
B|---------------------------------------|
G|---------------------------------------|
D|---------------------------------------|
A|---------------------------------------|
D|-12p0-10p0-12p0-0-3p0-5p0-10p0-12p0----|

part 2 x1
e|-----------------------------------|
B|-----------------------------------|
G|-----------------------------------|
D|-8-8--8-8--8-8-3-3-3-3--7-7-7-7----|
A|-8-8--8-8--8-8-3-3-3-3--7-7-7-7----|
E|-8-8--8-8--8-8-3-3-3-3--7-7-7-7----|

part 3 x2
e|---------------------------------------|
B|---------------------------------------|
G|---------------------------------------|
D|---------------------------------------|
A|---------------------------------------|
D|-12p0-10p0-12p0-3p0-5p0-7p0-10p0-12p0--|

part 2 x1
e|---------------------------------------|
B|---------------------------------------|
G|---------------------------------------|
D|-8-8--8-8--8-8-3-3-3-3-7-7-7-7---------|
A|-8-8--8-8--8-8-3-3-3-3-7-7-7-7---------|
D|-8-8--8-8--8-8-3-3-3-3-7-7-7-7---------|

riff 2 x3
e|-------------------------------|
B|-15-15-14--13------------------|
G|-14-14-13--13-12-12-11--10-7---|
D|--------------12-12-11--10-7---|
A|-------------------------------|
D|-------------------------------|

e|-------------------------------|
B|-15-15-16-17-18-19-20-21-22----|
G|-14-14-15-16-17-18-19-20-21----|
D|-------------------------------|
A|-------------------------------|
D|-------------------------------|

Then, do this:

verse
pre-chorus
chorus

e|---------------------------------------|
B|---------------------------------------|
G|---------------------------------------|
D|-8-8-8-8-8-8-8-8-7-7-7-7-7-7-7-7-------|
A|-8-8-8-8-8-8-8-8-7-7-7-7-7-7-7-7-------|
D|-8-8-8-8-8-8-8-8-3-3-7-7-7-7-7-7-------|

Then end with riff 2.

~~SOLO~~
I'll figure it out later.

chorus


| /  slide up
| \  slide down
| h  hammer-on
| p  pull-off
| ~  vibrato
| +  harmonic
| x  Mute note
====================================
Suggest correction
Give kudos to tab author, rate the tab!
1 2 3 4 5
comments
print report bad tab
guest
You may want to rate the tab now too:
select rating
Wanna post a correction for this tab? Suggest correction