Oops, an error
Loading. Please wait.

On With The Show Bass Tab

version 1
version 1

Whole song

Interactive

4,501 views 1 this week
no commentswrite comment
1 2 3 4 5
x 3
add to favorites
launch autoscroll
font size
0
reset
guitar tuner
Autoscroll
slow
fast
+/-
esc
set tempo
stop
Help us to improve Ultimate-Guitar.com Take our survey!
×
Author
Artist:Motley Crue
Song:On With the Show
Album:Too Fast For Love
Bassist:Nikki Sixx
Tabber:Dev Fuld

This is an awesome Crue classic. I saw them play this live, and it kicked ass, so here ya 
go.

Key:
x = times a number
* = let it ring

Guitar Intro

Intro (comes in after the drums)
G:-----------|
D:-----------|
A:-----------|
E:3x4-0x4-5x8|

Verse
G:-------------------------------|
D:-------------------------------|
A:5*-5-4*-4-2*-2-0*-0------------|
E:--------------------3x4-0x4-5x8|

Chorus
G:---------------------------|
D:---------------------------|
A:5x4-4x4-2x4-0x4------------|
E:----------------3x4-0x4-5x8|

After Chorus
G:-----7--------6--------4------------------------|
D:--------------------------------7---------------|
A:5*-5---5-4*-4---4-2*-2---2-0*-0---0-------------|
E:------------------------------------3*-3-0*-0-5*|

Solo...is the verse

That's it. It's relatively easy once you get the hang of it. You can toss in some improve 
if you want, too. You can figure out the order yourself. Any questions or comments, e-mail 
me at rocklvson@yahoo.com
Suggest correction
Give kudos to tab author, rate the tab!
1 2 3 4 5
comments
print report bad tab
guest
You may want to rate the tab now too:
select rating
Wanna post a correction for this tab? Suggest correction