Oops, an error
Loading. Please wait.

Piece Of Your Action Bass Tab

version 1
version 1

Whole song

Interactive

3,583 views 6 this week
3 commentsread comments
1 2 3 4 5
1 last vote to show rating
add to favorites
launch autoscroll
font size
0
reset
guitar tuner
Autoscroll
slow
fast
+/-
esc
set tempo
stop
Help us to improve Ultimate-Guitar.com Take our survey!
×
Author
Difficulty
intermediate
Artist:Motley Crue
Song:Piece Of Your Action
Album:Too Fast For Love
Bassist:Nikki Sixx
Tabber:Dev Fuld

Key:
x = times a number
r = rest

An awesome Crue classic that hasn't been tabbed yet, so I'll do it.

Intro
G:------------------------------------------------------|
D:------------------------------------------------------|
A:------------------------------------------------------|
E:3x29-0-1-2-3x13-0-1-2-3x13-0-1-2-3x13-0-1-2-3x13-0-1-2|

Verse-part1
                    x2
G:-------------------|
D:-------------------|
A:-------------------|
E:6-r-5-r-4-r-3-3-3-3|

verse-part2
G:-------------------------|----------------------|
D:-------------------------|----------------------|
A:-------------------------|------------------5x25|
E:6-3x6-5-3x6-4-3x7-3-3-3-3|6-3x6-5-3x6-4-3x6-----|

Chorus
G:-------------------------------------------|
D:-------------------------------------------|
A:-------------------------------------------|
E:3x13-0-1-2-3x13-0-1-2-3x13-0-1-2-3x13-0-1-2|

Verse-part1
Verse-part2
Chorus
Break

G:---------------------------------------|
D:---------------------------------------|
A:---------------------------------------|
E:0-1-2-3-3-r-3-0-1-2-3-3-r-3-3-3-1-3-3-3|

             x4
G:------------|
D:-------3---4|
A:------------|
E:3x12-1---2--|

       x4            x3
G:------|-------------|
D:------|-------------|
A:-----1|-----1-------|
E:3x13--|3x13---3x13-1|

Break

G:------------------------|
D:------------------------|
A:------------------------|
E:3-3-r-3-3-r-3-3-r-3-3--3|

Verse-part1
Verse-part2
Chorus
Chorus

That's it basically. Pretty easy. Any questions or comments? E-mail me at rocklvson@yahoo.com
Suggest correction
Give kudos to tab author, rate the tab!
1 2 3 4 5
comments
print report bad tab
3 comments total.
0 reply
_Lewis 10 Oct 16, 2008 04:59 PM

Cool tab. I pretty much had this down but not perfectly, couldn't figure out the break and this tab help me, thanks.

0 reply
x_Motley-Crue_x 10 Dec 21, 2008 10:27 AM

gd tab! thanx :D

0 reply
derekpaulson51 10 Sep 15, 2015 01:00 PM

terrible, were is the solo

guest
You may want to rate the tab now too:
select rating
Wanna post a correction for this tab? Suggest correction