Oops, an error
Loading. Please wait.

Power To The Music Bass Tab

version 1
version 1

Whole song

Interactive

839 views 9 this week
no commentswrite comment
1 2 3 4 5
please rate
add to favorites
launch autoscroll
font size
0
reset
guitar tuner
Tab Pro tools
  • play this tab
  • loop segment
  • change instrument
  • show fretboard
  • metronome
×
Best way to learn
"Power To The Music"
Autoscroll
slow
fast
+/-
esc
set tempo
stop
Contributor
Difficulty
intermediate
Artist:Motley Crue
Song:Power to the Music
Album:Motley Crue
Bassist:Nikki Sixx
Tabber:Dev Fuld

This is an awesome opening track to Crue's self titled 1994 album. 2 things different 
about this album than most other Crue albums. 1) They try an be more alternative. 2)Vince 
Neil isnt the singer on this album, John Corabi is.

Key:
b = bend
* = let it ring
x = times a number

*Guitar Intro*

Intro/Chorus
F:-----------------------|-----------------------|-----------------------|
C:-----------------------|-----------------------|-----------------------|
G:---------3------------5|-----------3-----------|---------3------------5|
C:3-0--0-5---0-3-0--0-7--|0-3-0--0-5---0-3-0-0-3b|3-0--0-5---0-3-0--0-7--|

F:---------------------------------|
C:---------------------------------|
G:-----------3---------------------|
C:0-3-0--0-5---0-3-0-6-5-0-3-0-5-3*|

Verse
F:--------------------------------------|-------|----------------|
C:--------------------------------------|-------|----------------|
G:--------------------------------------|-------|----------------|
C:0--3*-0--6-5-0-3*-0--3*-0--6-5-0-3-5-3|0x12-3*|0x9-6-5-0-3-5-3*|

F:-------|----------------|
C:-------|----------------|
G:-------|----------------|
C:0x12-3*|0x9-6-5-0-3-5-3*|

Solo
F:-----------------------|---------------------|Go back and fourth between
C:-----------------------|---------------------|these two riffs
G:-----------------------|---------------------|for the entire
C:0--00--00--6-5-0-3-5-3*|00--00--00--6-5-0-3b*|solo.

End solo
F:---------------------------|-----------------|
C:---------------------------|-----------------|
G:---------------------------|-----------------|
C:0--6-5-0-3-5-0--6-5-0-3-5-3|0--6-5-0-3-5-3-0*|

For the end, just fade out with the chorus.

That's it. It's an awesome heavy tune. It's easy once you get the hang of it, and crap like 
that. YOu can figure out the ordere yourself, all the parts are there though. Any questions 
or comments, e-mail me at rocklvson@yahoo.com   "Don't tell me to turn it down"
comments
We did not receive enough feedback on this tab! Please rate:
print report bad tab
1 2 3 4 5
I want to post or [tab]
guest
You may want to rate the tab now too:
select rating
Please do not post tabs as comments. Select "correction" instead!