Oops, an error
Loading. Please wait.

Primal Scream Bass Tab

version 2
version 2

Whole song

2,452 views 3 this week
no commentswrite comment
1 2 3 4 5
accurate
x 3
add to favorites
launch autoscroll
font size
0
reset
guitar tuner
Autoscroll
slow
fast
+/-
esc
set tempo
stop
Help us to improve Ultimate-Guitar.com Take our survey!
×
Author
Difficulty
intermediate
Artist:Motley Crue
Song:Primal Scream
Album:Greatist Hits
Bassist:Nikki Sixx
Tabber:Dev Fuld

This is an awesome Crue classic, with a nice rude and aggressive bass line.

Key:
x = times a number
/ = slide down
* = let it ring

Intro
G:----------------|--------------------------|
D:----------------|-----------3-----3-3------|
A:----------------|--------------------------|
E:10/3x31-2-1x31-2|3x31-2-1x4---1x4-----1-2-3|

Verse
G:----------------------------|
D:---------------5-3----------|
A:-------------------5-3------|I like to throw that last lil thing in
E:3--3-3--3--3-3---------5-4-3|

Pre-chorus
G:---------------------|
D:---------------------|
A:----------8x8-8-8-8-8|
E:3x16-6x16------------|

Chorus...is the intro part

After chorus
G:-------------------------------------|
D:3-2-0-2-0------0-2-0-3-2-0-2-0-------|
A:----------1--2-----------------1--2--|
E:------------------------------------3|

Solo
G:--------------------|-----------------------------|
D:--------------------|--------------------------10*|
A:----------8x16-10x16|----------------888x8-10*----|
E:3x16-6x16-----------|3-333x8-6-666x8--------------|

That's it. This tab kicks ass when you get it down. I'm sure you can figure out the order 
your-self. Feel free to toss in some improve during the solo. Any questions or comments, 
e-mail me at rocklvson@yahoo.com
Suggest correction
Give kudos to tab author, rate the tab!
1 2 3 4 5
comments
print report bad tab
guest
You may want to rate the tab now too:
select rating
Wanna post a correction for this tab? Suggest correction