Oops, an error
Loading. Please wait.

Public Enemy 1 Tab

version 3
version 3

Whole song

Interactive

2,747 views 3 this week
no commentswrite comment
1 2 3 4 5
please rate
add to favorites
launch autoscroll
font size
0
reset
how to read this tab
guitar tuner
Tab Pro tools
  • play this tab
  • loop segment
  • change instrument
  • show fretboard
  • metronome
×
Best way to learn
"Public Enemy 1"
Autoscroll
slow
fast
+/-
esc
set tempo
stop
Contributor
Difficulty
intermediate
-------------------------------------------------------------------------------
                             PUBLIC ENEMY #1 - Motley Crue
-------------------------------------------------------------------------------
Tabbed by: ironmanben
Email: bentrooper@gmail.com

Tuning: d A F C G C (Full Step Down)

intro:
e|------------------------------------------------------|
B|------------------------------------------------------|
G|-xx9-9-9-99----xx9-9-9-99----xx9-9-9-99----xx9-9-9-99-|
D|-xx9-9-9-99----xx9-9-9-99----xx9-9-9-99----xx9-9-9-99-|
A|-xx7-7-7-77----xx7-7-7-77----xx7-7-7-77----xx7-7-7-77-|
E|------------------------------------------------------|


e|------------------------------------------------------|
B|------------------------------------------------------|
G|-xx9-9-9-99----xx9-9-9-99----xx9-9-9-99----xx9-9-9-99-|
D|-xx9-9-9-99----xx9-9-9-99----xx9-9-9-99----xx9-9-9-99-|
A|-xx7-7-7-77----xx7-7-7-77----xx7-7-7-77----xx7-7-7-77-|
E|------------------------------------------------------|
-|                                                      |
e|------------------------------------------------------|
B|---10--10t9-10-9-10-9---------10--10t9-10-9-10-9------|
G|----------------------11-9-----------------------11-9-|
D|------------------------------------------------------|
A|------------------------------------------------------|
E|------------------------------------------------------|

e|---------------------------------------|
B|---------------------------------------|
G|-4-4-------------4-4-------------------|
D|-4-4-----444444444-4-----44444444------|
A|-2-2-----222222222-2-----22222222------|
E|---------------------------------------|
-|         xxxxxxxx        xxxxxxxx      |
e|---------------------------------------|
B|---------------------------------------|
G|-9-8t9-9-8-9-8------9-8t9-9-8-9-8------|
D|---------------11-9---------------11-9-|
A|---------------------------------------|
E|---------------------------------------|


verse:
e|-------------------------------------------------------------------------|
B|-------------------------------------------------------------------------|
G|-9-----------------------9-----------------------4-4-------------4-4-----|
D|-9-------9-999-999-999-999-------9-999-999-999-994-4-----444444444-4-----|
A|-7-------7-777-777-777-777-------7-777-777-777-772-2-----222222222-2-----|
E|-------------------------------------------------------------------------|
-|         x xxx xxx xxx xx        x xxx xxx xxx xx        xxxxxxxx
e|-------------------------------------------------------------------------|
B|-------------------------------------------------------------------------|
G|-------------------------------------------------4-4-------------4-4-----|
D|-------------------------------------------------4-4-------------4-4-----|
A|-2-------2-222-222-222-222-------2-222-222-222-222-2-----222222222-2-----|
E|-0-------0-000-000-000-000-------0-000-000-000-00------------------------|
           x xxx xxx xxx xx        x xxx xxx xxx xx        xxxxxxxx

e|----------|
B|----------|
G|----------|
D|-44444444-|
A|-22222222-|
E|----------|
-| xxxxxxxx |
e|----------|
B|----------|
G|----------|
D|----------|
A|-22222222-|
E|----------|
   xxxxxxxx


pre-chorus:
e|---------------------------------------------------------------------------|
B|---------------------------------------------------------------------------|
G|-2--------------2--------------2-------------------------------------------|
D|-2-222222-------2-222222-------2-222222--------444444444444444444444444444-|
A|-0-000002-2222220-000002-2222220-000002-222222-222222222222222222222222222-|
E|--------0-000000-------0-000000-------0-000000-----------------------------|
-|   xxxxx  xxxxxx  xxxxx  xxxxxx  xxxxx  xxxxxx xxxxxxxxxxxxxxxxxxxxxxxxxxx
e|--------------------------------------------------------------------------|
B|--------------------------------------------------------------------------|
G|----------------22-------------22-----------------------------444---------|
D|-224424---------2224424--------2224424------64----------------444---------|
A|-000000-2-24424200000002-24424200000002-244242----------------222---------|
E|--------0-0000---------0-0000---------0-0000------------------------------|


e|-------|
B|-------|
G|-------|
D|-44444-|
A|-22222-|
E|-------|
-| xxxxx |
e|-------|
B|-------|
G|-------|
D|-44444-|
A|-22222-|
E|-------|
   x


chorus:
-| x2                        | x1                     |
e|---------------------------|------------------------|
B|---------------------------|------------------------|
G|---------------2-22-2------|---------------2-22-2-2-|
D|---------------2-22-2------|---------------2-22-2-2-|
A|---------------0-00-0------|---------------0-00-0-0-|
E|-0-3^p0-3^p0-3--------0-3^-|-0-3^p0-3^p0-3----------|
-|                           |                        |
e|---------------------------|------------------------|
B|---------------------------|------------------------|
G|---------------------------|------------------------|
D|---------------2-24-2------|---------------2-24-223-|
A|-2--2-2-2-2-2--0-00-0------|-2--2-2-2-2-2--0-00-001-|
E|-0--0-0-0-0-0--------------|-0--0-0-0-0-0-----------|

e|----------------------------------|
B|----------------------------------|
G|----------------------------------|
D|-44444444444444444444444444444444-|
A|-22222222222222222222222222222222-|
E|----------------------------------|
-| xxxxxxxxxxxxxxxxxxxxxxxxxxxxxxxx |
e|----------------------------------|
B|----------------------------------|
G|----------------444----------4444-|
D|----------------444----------4444-|
A|----------------222----------2222-|
E|----------------------------------|


riff 2:
e|------------------------------------------------------|
B|------------------------------------------------------|
G|---9-------x-x-x-x-x-x-x-x-9-------x-x-x-x-x-x-x-x----|
D|---9-------x-x-x-x-x-x-x-x-9-------x-x-x-x-x-x-x-x----|
A|---7-------x-x-x-x-x-x-x-x-7-------x-x-x-x-x-x-x-x----|
E|------------------------------------------------------|
-|                                                      |
e|------------------------------------------------------|
B|---10--10t9-10-9-10-9---------10--10t9-10-9-10-9------|
G|----------------------11-9-----------------------11-9-|
D|------------------------------------------------------|
A|------------------------------------------------------|
E|------------------------------------------------------|

e|---------------------------------------|
B|---------------------------------------|
G|-4-4-------------4-4-------------------|
D|-4-4-----444444444-4-----44444444------|
A|-2-2-----222222222-2-----22222222------|
E|---------------------------------------|
-|         xxxxxxxx        xxxxxxxx      |
e|---------------------------------------|
B|---------------------------------------|
G|-9-8t9-9-8-9-8------9-8t9-9-8-9-8------|
D|---------------11-9---------------11-9-|
A|---------------------------------------|
E|---------------------------------------|


solo:
(I don't have the solo, but here's the rhythm part.  I'll add the solo after I figure it out).
e|------------------------------------------------------|
B|------------------------------------------------------|
G|---9-------x-x-x-x-x-x-x-x-9-------x-x-x-x-x-x-x-x----|
D|---9-------x-x-x-x-x-x-x-x-9-------x-x-x-x-x-x-x-x----|
A|---7-------x-x-x-x-x-x-x-x-7-------x-x-x-x-x-x-x-x----|
E|------------------------------------------------------|

e|---------------------------------------|
B|---------------------------------------|
G|-4-4-------------4-4-------------------|
D|-4-4-----444444444-4-----44444444------|
A|-2-2-----222222222-2-----22222222------|
E|---------------------------------------|
           xxxxxxxx        xxxxxxxx

e|------------------------------------------------------|
B|------------------------------------------------------|
G|---9-------x-x-x-x-x-x-x-x-9-------x-x-x-x-x-x-x-x----|
D|---9-------x-x-x-x-x-x-x-x-9-------x-x-x-x-x-x-x-x----|
A|---7-------x-x-x-x-x-x-x-x-7-------x-x-x-x-x-x-x-x----|
E|------------------------------------------------------|


e|---------------------------------------|
B|---------------------------------------|
G|-4-4-------------4-4-------------------|
D|-4-4-----444444444-4-----44444444------|
A|-2-2-----222222222-2-----22222222------|
E|---------------------------------------|
           xxxxxxxx        xxxxxxxx

chorus:
-| x12                       | x1                     |
e|---------------------------|------------------------|
B|---------------------------|------------------------|
G|---------------2-22-2------|---------------2-22-2-2-|
D|---------------2-22-2------|---------------2-22-2-2-|
A|---------------0-00-0------|---------------0-00-0-0-|
E|-0-3^p0-3^p0-3--------0-3^-|-0-3^p0-3^p0-3----------|
-|                           |                        |
e|---------------------------|------------------------|
B|---------------------------|------------------------|
G|---------------------------|------------------------|
D|---------------2-24-2------|---------------2-24-223-|
A|-2--2-2-2-2-2--0-00-0------|-2--2-2-2-2-2--0-00-001-|
E|-0--0-0-0-0-0--------------|-0--0-0-0-0-0-----------|


e|----------------------------------|
B|----------------------------------|
G|----------------------------------|
D|-44444444444444444444444444444444-|
A|-22222222222222222222222222222222-|
E|----------------------------------|
-| xxxxxxxxxxxxxxxxxxxxxxxxxxxxxxxx |
e|----------------------------------|
B|----------------------------------|
G|----------------444----------4444-|
D|----------------444----------4444-|
A|----------------222----------2222-|
E|----------------------------------|

outro:
e|------------------------------------------------------|
B|------------------------------------------------------|
G|---9-9-9-99------9-9-9-99------9-9-9-99------9-9-9-99-|
D|------------------------------------------------------|
A|------------------------------------------------------|
E|------------------------------------------------------|
-|                                                      |
e|------------------------------------------------------|
B|------------------------------------------------------|
G|-xx9-9-9-99----xx9-9-9-99----xx9-9-9-99----xx9-9-9-99-|
D|-xx9-9-9-99----xx9-9-9-99----xx9-9-9-99----xx9-9-9-99-|
A|-xx7-7-7-77----xx7-7-7-77----xx7-7-7-77----xx7-7-7-77-|
E|------------------------------------------------------|

Order:
intro
verse x2
pre-chorus
chorus
riff 2
verse x2
pre-chorus
chorus
solo
pre-chorus
chorus 2
outro

************************************

| /   slide up
| \   slide down
| h   hammer-on
| p   pull-off
| ~   vibrato
| +   harmonic
| x   Mute note
| b   Bend
| pb  Pre-bend
| br  Bend release
| pbr Pre-bend release
| brb Bend release bend
| t   Trill

************************************
comments
We did not receive enough feedback on this tab! Please rate:
print report bad tab
1 2 3 4 5
I want to post or [tab]
guest
You may want to rate the tab now too:
select rating
Please do not post tabs as comments. Select "correction" instead!