Oops, an error
Loading. Please wait.

Punched In The Teeth By Love Bass Tab

1,077 views 1 this week
1 commentread comment
1 2 3 4 5
excellent!
x 1
add to favorites
launch autoscroll
font size
0
reset
guitar tuner
Tab Pro tools
  • play this tab
  • loop segment
  • change instrument
  • show fretboard
  • metronome
Autoscroll
slow
fast
+/-
esc
set tempo
stop
Contributor
Difficulty
intermediate
Artist:Motley Crue
Song:Punched in the Teeth by Love
Album:New Tattoo
Bassist:Nikki Sixx
Tabber:Dev Fuld

This is an awesome tune, it's not really a classic Crue tune, because Tommy Lee was not 
the drummer for this album, but it was an awesome, and raw album. R.I.P. Randy Castillo.

Key:
x = times a number

*Guitar Intro*

Intro
F:----|
C:----|
G:----|
D:2x32|

Verse (option 1)
F:----|----|----|----|------|4-2--|
C:----|----|----|----|------|----4|
G:----|----|2x32|----|4x16-2|-----|
D:2x32|2x32|----|2x32|------|-----|

Verse (option 2)
F:-------2---4---2---4-2-3-4|-------2---4---2---4-2-3-4|-------7---9---7---9-7-8-9|
C:-----4---4---4---4--------|-----4---4---4---4--------|-----9---9---9---9--------|
G:--------------------------|--------------------------|2x16----------------------|
D:2x16----------------------|2x16----------------------|--------------------------|

F:-------2---4---2---4-2-3-4|------|4-2--|
C:-----4---4---4---4--------|------|----4|
G:--------------------------|4x16-2|-----|
D:2x16----------------------|------|-----|

Chorus
F:----------|
C:----------|
G:-----0-1-2|
D:2x29------|

Solo
F:---------------------------------------|-------------------|
C:---------------------------------------|-------------------|
G:2x16------2x16------2x16------4x16-2x16|----------5x16-4x16|
D:-----2x16------2x16------2x16----------|2x16-0x16----------|

Last Verse
F:--------------|
C:--------------|
G:-----2x16-4x16|
D:2x32----------|

Last Chorus
F:-------------------|
C:-------------------|
G:----------5x16-4x16|
D:2x16-0x16----------|

That's it. It's an awesome tune so play it loud! You can figure out the order yourself, 
it shouldn't be that hard. Any questions or comments, e-mail me at rocklvson@yahoo.com
comments
We did not receive enough feedback on this tab! Please rate:
print report bad tab
1 2 3 4 5
1 comment total.
0 reply
x_Motley-Crue_x wrote on April 14 2009, 10:11 am

Brilliant tab, I used option 1 for the verse and it sounds great when I play it. It's a very easy song to get the hang of. Thanks for another great tab!

I want to post or [tab]
guest
You may want to rate the tab now too:
select rating
Please do not post tabs as comments. Select "correction" instead!